ISO-10303-21;
HEADER;
/* Generated by software containing ST-Developer
 * from STEP Tools, Inc. (www.steptools.com) 
 */

FILE_DESCRIPTION(
/* description */ (''),
/* implementation_level */ '2;1');

FILE_NAME(
/* name */ 
'C:/Users/at205837/Desktop/TEMPORAIRE/Support vertical v2.step',
/* time_stamp */ '2020-05-03T17:13:19+02:00',
/* author */ (''),
/* organization */ (''),
/* preprocessor_version */ 'ST-DEVELOPER v18.1',
/* originating_system */ 'Autodesk Translation Framework v9.2.0.1227',
/* authorisation */ '');

FILE_SCHEMA (('AUTOMOTIVE_DESIGN { 1 0 10303 214 3 1 1 }'));
ENDSEC;

DATA;
#10=MECHANICAL_DESIGN_GEOMETRIC_PRESENTATION_REPRESENTATION('',(#13),#369);
#11=SHAPE_REPRESENTATION_RELATIONSHIP('SRR','None',#376,#12);
#12=ADVANCED_BREP_SHAPE_REPRESENTATION('',(#14),#368);
#13=STYLED_ITEM('',(#385),#14);
#14=MANIFOLD_SOLID_BREP('Body1',#189);
#15=FACE_BOUND('',#45,.T.);
#16=FACE_BOUND('',#48,.T.);
#17=FACE_BOUND('',#50,.T.);
#18=PLANE('',#211);
#19=PLANE('',#212);
#20=PLANE('',#213);
#21=PLANE('',#218);
#22=PLANE('',#222);
#23=PLANE('',#223);
#24=B_SPLINE_CURVE_WITH_KNOTS('',3,(#292,#293,#294,#295,#296,#297,#298,
#299,#300,#301,#302,#303,#304,#305,#306,#307,#308,#309),.UNSPECIFIED.,.F.,
 .F.,(4,2,2,2,2,2,2,2,4),(0.,0.245696390046693,0.491392780093387,0.737070080030117,
0.982747379966847,1.22842467990358,1.47410197984031,1.719798369887,1.96549475993369),
 .UNSPECIFIED.);
#25=B_SPLINE_CURVE_WITH_KNOTS('',3,(#312,#313,#314,#315,#316,#317,#318,
#319,#320,#321,#322,#323,#324,#325,#326,#327,#328,#329),.UNSPECIFIED.,.F.,
 .F.,(4,2,2,2,2,2,2,2,4),(0.,0.250457190377865,0.50091438075573,0.750625247538393,
1.00033611432106,1.25004698110372,1.49975784788638,1.75021503826425,2.00067222864211),
 .UNSPECIFIED.);
#26=FACE_OUTER_BOUND('',#37,.T.);
#27=FACE_OUTER_BOUND('',#38,.T.);
#28=FACE_OUTER_BOUND('',#39,.T.);
#29=FACE_OUTER_BOUND('',#40,.T.);
#30=FACE_OUTER_BOUND('',#41,.T.);
#31=FACE_OUTER_BOUND('',#42,.T.);
#32=FACE_OUTER_BOUND('',#43,.T.);
#33=FACE_OUTER_BOUND('',#44,.T.);
#34=FACE_OUTER_BOUND('',#46,.T.);
#35=FACE_OUTER_BOUND('',#47,.T.);
#36=FACE_OUTER_BOUND('',#49,.T.);
#37=EDGE_LOOP('',(#125,#126,#127,#128));
#38=EDGE_LOOP('',(#129,#130,#131,#132));
#39=EDGE_LOOP('',(#133,#134,#135,#136,#137,#138,#139,#140));
#40=EDGE_LOOP('',(#141,#142,#143,#144));
#41=EDGE_LOOP('',(#145,#146,#147,#148));
#42=EDGE_LOOP('',(#149,#150,#151,#152,#153,#154));
#43=EDGE_LOOP('',(#155,#156,#157,#158,#159,#160,#161,#162));
#44=EDGE_LOOP('',(#163));
#45=EDGE_LOOP('',(#164));
#46=EDGE_LOOP('',(#165,#166,#167,#168));
#47=EDGE_LOOP('',(#169));
#48=EDGE_LOOP('',(#170));
#49=EDGE_LOOP('',(#171));
#50=EDGE_LOOP('',(#172));
#51=LINE('',#285,#63);
#52=LINE('',#290,#64);
#53=LINE('',#311,#65);
#54=LINE('',#332,#66);
#55=LINE('',#336,#67);
#56=LINE('',#340,#68);
#57=LINE('',#343,#69);
#58=LINE('',#344,#70);
#59=LINE('',#347,#71);
#60=LINE('',#348,#72);
#61=LINE('',#355,#73);
#62=LINE('',#362,#74);
#63=VECTOR('',#230,6.5);
#64=VECTOR('',#235,10.);
#65=VECTOR('',#236,10.);
#66=VECTOR('',#239,10.);
#67=VECTOR('',#242,30.);
#68=VECTOR('',#247,10.);
#69=VECTOR('',#250,10.);
#70=VECTOR('',#251,10.);
#71=VECTOR('',#254,10.);
#72=VECTOR('',#255,10.);
#73=VECTOR('',#264,12.75);
#74=VECTOR('',#273,50.);
#75=CIRCLE('',#204,6.5);
#76=CIRCLE('',#205,6.5);
#77=CIRCLE('',#208,30.);
#78=CIRCLE('',#209,30.);
#79=CIRCLE('',#210,30.);
#80=CIRCLE('',#214,12.75);
#81=CIRCLE('',#215,12.75);
#82=CIRCLE('',#217,12.75);
#83=CIRCLE('',#220,50.);
#84=CIRCLE('',#221,50.);
#85=VERTEX_POINT('',#282);
#86=VERTEX_POINT('',#284);
#87=VERTEX_POINT('',#288);
#88=VERTEX_POINT('',#289);
#89=VERTEX_POINT('',#291);
#90=VERTEX_POINT('',#310);
#91=VERTEX_POINT('',#331);
#92=VERTEX_POINT('',#333);
#93=VERTEX_POINT('',#335);
#94=VERTEX_POINT('',#338);
#95=VERTEX_POINT('',#342);
#96=VERTEX_POINT('',#346);
#97=VERTEX_POINT('',#350);
#98=VERTEX_POINT('',#354);
#99=VERTEX_POINT('',#359);
#100=VERTEX_POINT('',#361);
#101=EDGE_CURVE('',#85,#85,#75,.T.);
#102=EDGE_CURVE('',#85,#86,#51,.T.);
#103=EDGE_CURVE('',#86,#86,#76,.T.);
#104=EDGE_CURVE('',#87,#88,#52,.T.);
#105=EDGE_CURVE('',#89,#87,#24,.T.);
#106=EDGE_CURVE('',#90,#89,#53,.T.);
#107=EDGE_CURVE('',#88,#90,#25,.T.);
#108=EDGE_CURVE('',#87,#91,#54,.T.);
#109=EDGE_CURVE('',#92,#91,#77,.T.);
#110=EDGE_CURVE('',#92,#93,#55,.T.);
#111=EDGE_CURVE('',#93,#93,#78,.T.);
#112=EDGE_CURVE('',#94,#92,#79,.T.);
#113=EDGE_CURVE('',#94,#89,#56,.T.);
#114=EDGE_CURVE('',#95,#94,#57,.T.);
#115=EDGE_CURVE('',#90,#95,#58,.T.);
#116=EDGE_CURVE('',#91,#96,#59,.T.);
#117=EDGE_CURVE('',#96,#88,#60,.T.);
#118=EDGE_CURVE('',#96,#97,#80,.T.);
#119=EDGE_CURVE('',#97,#95,#81,.T.);
#120=EDGE_CURVE('',#97,#98,#61,.T.);
#121=EDGE_CURVE('',#98,#98,#82,.T.);
#122=EDGE_CURVE('',#99,#99,#83,.T.);
#123=EDGE_CURVE('',#99,#100,#62,.T.);
#124=EDGE_CURVE('',#100,#100,#84,.T.);
#125=ORIENTED_EDGE('',*,*,#101,.F.);
#126=ORIENTED_EDGE('',*,*,#102,.T.);
#127=ORIENTED_EDGE('',*,*,#103,.F.);
#128=ORIENTED_EDGE('',*,*,#102,.F.);
#129=ORIENTED_EDGE('',*,*,#104,.F.);
#130=ORIENTED_EDGE('',*,*,#105,.F.);
#131=ORIENTED_EDGE('',*,*,#106,.F.);
#132=ORIENTED_EDGE('',*,*,#107,.F.);
#133=ORIENTED_EDGE('',*,*,#105,.T.);
#134=ORIENTED_EDGE('',*,*,#108,.T.);
#135=ORIENTED_EDGE('',*,*,#109,.F.);
#136=ORIENTED_EDGE('',*,*,#110,.T.);
#137=ORIENTED_EDGE('',*,*,#111,.F.);
#138=ORIENTED_EDGE('',*,*,#110,.F.);
#139=ORIENTED_EDGE('',*,*,#112,.F.);
#140=ORIENTED_EDGE('',*,*,#113,.T.);
#141=ORIENTED_EDGE('',*,*,#114,.F.);
#142=ORIENTED_EDGE('',*,*,#115,.F.);
#143=ORIENTED_EDGE('',*,*,#106,.T.);
#144=ORIENTED_EDGE('',*,*,#113,.F.);
#145=ORIENTED_EDGE('',*,*,#116,.F.);
#146=ORIENTED_EDGE('',*,*,#108,.F.);
#147=ORIENTED_EDGE('',*,*,#104,.T.);
#148=ORIENTED_EDGE('',*,*,#117,.F.);
#149=ORIENTED_EDGE('',*,*,#116,.T.);
#150=ORIENTED_EDGE('',*,*,#118,.T.);
#151=ORIENTED_EDGE('',*,*,#119,.T.);
#152=ORIENTED_EDGE('',*,*,#114,.T.);
#153=ORIENTED_EDGE('',*,*,#112,.T.);
#154=ORIENTED_EDGE('',*,*,#109,.T.);
#155=ORIENTED_EDGE('',*,*,#107,.T.);
#156=ORIENTED_EDGE('',*,*,#115,.T.);
#157=ORIENTED_EDGE('',*,*,#119,.F.);
#158=ORIENTED_EDGE('',*,*,#120,.T.);
#159=ORIENTED_EDGE('',*,*,#121,.T.);
#160=ORIENTED_EDGE('',*,*,#120,.F.);
#161=ORIENTED_EDGE('',*,*,#118,.F.);
#162=ORIENTED_EDGE('',*,*,#117,.T.);
#163=ORIENTED_EDGE('',*,*,#121,.F.);
#164=ORIENTED_EDGE('',*,*,#103,.T.);
#165=ORIENTED_EDGE('',*,*,#122,.F.);
#166=ORIENTED_EDGE('',*,*,#123,.T.);
#167=ORIENTED_EDGE('',*,*,#124,.T.);
#168=ORIENTED_EDGE('',*,*,#123,.F.);
#169=ORIENTED_EDGE('',*,*,#122,.T.);
#170=ORIENTED_EDGE('',*,*,#111,.T.);
#171=ORIENTED_EDGE('',*,*,#124,.F.);
#172=ORIENTED_EDGE('',*,*,#101,.T.);
#173=CYLINDRICAL_SURFACE('',#203,6.5);
#174=CYLINDRICAL_SURFACE('',#206,6.5);
#175=CYLINDRICAL_SURFACE('',#207,30.);
#176=CYLINDRICAL_SURFACE('',#216,12.75);
#177=CYLINDRICAL_SURFACE('',#219,50.);
#178=ADVANCED_FACE('',(#26),#173,.F.);
#179=ADVANCED_FACE('',(#27),#174,.F.);
#180=ADVANCED_FACE('',(#28),#175,.T.);
#181=ADVANCED_FACE('',(#29),#18,.F.);
#182=ADVANCED_FACE('',(#30),#19,.F.);
#183=ADVANCED_FACE('',(#31),#20,.T.);
#184=ADVANCED_FACE('',(#32),#176,.F.);
#185=ADVANCED_FACE('',(#33,#15),#21,.T.);
#186=ADVANCED_FACE('',(#34),#177,.T.);
#187=ADVANCED_FACE('',(#35,#16),#22,.T.);
#188=ADVANCED_FACE('',(#36,#17),#23,.F.);
#189=CLOSED_SHELL('',(#178,#179,#180,#181,#182,#183,#184,#185,#186,#187,
#188));
#190=DERIVED_UNIT_ELEMENT(#192,1.);
#191=DERIVED_UNIT_ELEMENT(#371,3.);
#192=(
MASS_UNIT()
NAMED_UNIT(*)
SI_UNIT(.KILO.,.GRAM.)
);
#193=DERIVED_UNIT((#190,#191));
#194=MEASURE_REPRESENTATION_ITEM('density measure',
POSITIVE_RATIO_MEASURE(641.),#193);
#195=PROPERTY_DEFINITION_REPRESENTATION(#200,#197);
#196=PROPERTY_DEFINITION_REPRESENTATION(#201,#198);
#197=REPRESENTATION('material name',(#199),#368);
#198=REPRESENTATION('density',(#194),#368);
#199=DESCRIPTIVE_REPRESENTATION_ITEM('Ash','Ash');
#200=PROPERTY_DEFINITION('material property','material name',#378);
#201=PROPERTY_DEFINITION('material property','density of part',#378);
#202=AXIS2_PLACEMENT_3D('placement',#280,#224,#225);
#203=AXIS2_PLACEMENT_3D('',#281,#226,#227);
#204=AXIS2_PLACEMENT_3D('',#283,#228,#229);
#205=AXIS2_PLACEMENT_3D('',#286,#231,#232);
#206=AXIS2_PLACEMENT_3D('',#287,#233,#234);
#207=AXIS2_PLACEMENT_3D('',#330,#237,#238);
#208=AXIS2_PLACEMENT_3D('',#334,#240,#241);
#209=AXIS2_PLACEMENT_3D('',#337,#243,#244);
#210=AXIS2_PLACEMENT_3D('',#339,#245,#246);
#211=AXIS2_PLACEMENT_3D('',#341,#248,#249);
#212=AXIS2_PLACEMENT_3D('',#345,#252,#253);
#213=AXIS2_PLACEMENT_3D('',#349,#256,#257);
#214=AXIS2_PLACEMENT_3D('',#351,#258,#259);
#215=AXIS2_PLACEMENT_3D('',#352,#260,#261);
#216=AXIS2_PLACEMENT_3D('',#353,#262,#263);
#217=AXIS2_PLACEMENT_3D('',#356,#265,#266);
#218=AXIS2_PLACEMENT_3D('',#357,#267,#268);
#219=AXIS2_PLACEMENT_3D('',#358,#269,#270);
#220=AXIS2_PLACEMENT_3D('',#360,#271,#272);
#221=AXIS2_PLACEMENT_3D('',#363,#274,#275);
#222=AXIS2_PLACEMENT_3D('',#364,#276,#277);
#223=AXIS2_PLACEMENT_3D('',#365,#278,#279);
#224=DIRECTION('axis',(0.,0.,1.));
#225=DIRECTION('refdir',(1.,0.,0.));
#226=DIRECTION('center_axis',(0.,0.,1.));
#227=DIRECTION('ref_axis',(1.,0.,0.));
#228=DIRECTION('center_axis',(0.,0.,1.));
#229=DIRECTION('ref_axis',(1.,0.,0.));
#230=DIRECTION('',(0.,0.,1.));
#231=DIRECTION('center_axis',(0.,0.,-1.));
#232=DIRECTION('ref_axis',(1.,0.,0.));
#233=DIRECTION('center_axis',(0.,-1.,0.));
#234=DIRECTION('ref_axis',(1.,0.,0.));
#235=DIRECTION('',(0.,1.,0.));
#236=DIRECTION('',(0.,-1.,0.));
#237=DIRECTION('center_axis',(0.,0.,1.));
#238=DIRECTION('ref_axis',(-1.,0.,0.));
#239=DIRECTION('',(0.,0.,1.));
#240=DIRECTION('center_axis',(0.,0.,1.));
#241=DIRECTION('ref_axis',(-1.,0.,0.));
#242=DIRECTION('',(0.,0.,-1.));
#243=DIRECTION('center_axis',(0.,0.,-1.));
#244=DIRECTION('ref_axis',(-1.,0.,0.));
#245=DIRECTION('center_axis',(0.,0.,1.));
#246=DIRECTION('ref_axis',(-1.,0.,0.));
#247=DIRECTION('',(0.,0.,-1.));
#248=DIRECTION('center_axis',(1.,0.,0.));
#249=DIRECTION('ref_axis',(0.,-1.,0.));
#250=DIRECTION('',(0.,-1.,0.));
#251=DIRECTION('',(0.,0.,1.));
#252=DIRECTION('center_axis',(-1.,0.,0.));
#253=DIRECTION('ref_axis',(0.,1.,0.));
#254=DIRECTION('',(0.,1.,0.));
#255=DIRECTION('',(0.,0.,-1.));
#256=DIRECTION('center_axis',(0.,0.,1.));
#257=DIRECTION('ref_axis',(-1.,0.,0.));
#258=DIRECTION('center_axis',(0.,0.,-1.));
#259=DIRECTION('ref_axis',(-1.,0.,0.));
#260=DIRECTION('center_axis',(0.,0.,-1.));
#261=DIRECTION('ref_axis',(-1.,0.,0.));
#262=DIRECTION('center_axis',(0.,0.,-1.));
#263=DIRECTION('ref_axis',(-1.,0.,0.));
#264=DIRECTION('',(0.,0.,-1.));
#265=DIRECTION('center_axis',(0.,0.,-1.));
#266=DIRECTION('ref_axis',(-1.,0.,0.));
#267=DIRECTION('center_axis',(0.,0.,1.));
#268=DIRECTION('ref_axis',(-1.,0.,0.));
#269=DIRECTION('center_axis',(0.,0.,1.));
#270=DIRECTION('ref_axis',(1.,0.,0.));
#271=DIRECTION('center_axis',(0.,0.,1.));
#272=DIRECTION('ref_axis',(1.,0.,0.));
#273=DIRECTION('',(0.,0.,-1.));
#274=DIRECTION('center_axis',(0.,0.,1.));
#275=DIRECTION('ref_axis',(1.,0.,0.));
#276=DIRECTION('center_axis',(0.,0.,1.));
#277=DIRECTION('ref_axis',(1.,0.,0.));
#278=DIRECTION('center_axis',(0.,0.,1.));
#279=DIRECTION('ref_axis',(1.,0.,0.));
#280=CARTESIAN_POINT('',(0.,0.,0.));
#281=CARTESIAN_POINT('Origin',(0.,0.,0.));
#282=CARTESIAN_POINT('',(-6.5,7.9602041944578E-16,0.));
#283=CARTESIAN_POINT('Origin',(0.,0.,0.));
#284=CARTESIAN_POINT('',(-6.5,7.9602041944578E-16,15.));
#285=CARTESIAN_POINT('',(-6.5,-7.9602041944578E-16,0.));
#286=CARTESIAN_POINT('Origin',(0.,0.,15.));
#287=CARTESIAN_POINT('Origin',(0.,0.,41.5));
#288=CARTESIAN_POINT('',(-6.5,-29.2873692912149,41.5));
#289=CARTESIAN_POINT('',(-6.5,-10.9687054842402,41.5));
#290=CARTESIAN_POINT('',(-6.5,31.4533048869821,41.5));
#291=CARTESIAN_POINT('',(6.5,-29.2873692912149,41.5));
#292=CARTESIAN_POINT('Ctrl Pts',(6.5,-29.2873692912149,41.5));
#293=CARTESIAN_POINT('Ctrl Pts',(6.5,-29.2873692912149,40.6810120331777));
#294=CARTESIAN_POINT('Ctrl Pts',(6.33579170341036,-29.325289689601,39.8092793839276));
#295=CARTESIAN_POINT('Ctrl Pts',(5.67165262615528,-29.460944078794,38.2086246041127));
#296=CARTESIAN_POINT('Ctrl Pts',(5.17185713582384,-29.5565770531696,37.4794689803987));
#297=CARTESIAN_POINT('Ctrl Pts',(4.02057574745047,-29.7350680386015,36.3281875920254));
#298=CARTESIAN_POINT('Ctrl Pts',(3.29140124257978,-29.8297117308557,35.828357112357));
#299=CARTESIAN_POINT('Ctrl Pts',(1.69068043081599,-29.9630876867967,35.1641926087697));
#300=CARTESIAN_POINT('Ctrl Pts',(0.818924333122435,-30.,35.));
#301=CARTESIAN_POINT('Ctrl Pts',(-0.818924333122434,-30.,35.));
#302=CARTESIAN_POINT('Ctrl Pts',(-1.69068043081599,-29.9630876867967,35.1641926087697));
#303=CARTESIAN_POINT('Ctrl Pts',(-3.29140124257978,-29.8297117308557,35.828357112357));
#304=CARTESIAN_POINT('Ctrl Pts',(-4.02057574745047,-29.7350680386015,36.3281875920254));
#305=CARTESIAN_POINT('Ctrl Pts',(-5.17185713582384,-29.5565770531696,37.4794689803987));
#306=CARTESIAN_POINT('Ctrl Pts',(-5.67165262615528,-29.460944078794,38.2086246041127));
#307=CARTESIAN_POINT('Ctrl Pts',(-6.33579170341036,-29.325289689601,39.8092793839276));
#308=CARTESIAN_POINT('Ctrl Pts',(-6.5,-29.2873692912149,40.6810120331777));
#309=CARTESIAN_POINT('Ctrl Pts',(-6.5,-29.2873692912149,41.5));
#310=CARTESIAN_POINT('',(6.5,-10.9687054842402,41.5));
#311=CARTESIAN_POINT('',(6.5,-31.4533048869821,41.5));
#312=CARTESIAN_POINT('Ctrl Pts',(-6.5,-10.9687054842402,41.5));
#313=CARTESIAN_POINT('Ctrl Pts',(-6.5,-10.9687054842402,40.6651426987404));
#314=CARTESIAN_POINT('Ctrl Pts',(-6.32994951129584,-11.0741693303336,39.7885333214192));
#315=CARTESIAN_POINT('Ctrl Pts',(-5.66254877405008,-11.4298299781534,38.1935004694386));
#316=CARTESIAN_POINT('Ctrl Pts',(-5.16564689184154,-11.6726733182573,37.4732587364164));
#317=CARTESIAN_POINT('Ctrl Pts',(-4.0284381446789,-12.1121706722066,36.3360499892538));
#318=CARTESIAN_POINT('Ctrl Pts',(-3.307632950792,-12.3404128756254,35.8379082333865));
#319=CARTESIAN_POINT('Ctrl Pts',(-1.71010182143887,-12.6610338376259,35.1694966448083));
#320=CARTESIAN_POINT('Ctrl Pts',(-0.83236955594221,-12.75,35.));
#321=CARTESIAN_POINT('Ctrl Pts',(0.832369555942207,-12.75,35.));
#322=CARTESIAN_POINT('Ctrl Pts',(1.71010182143887,-12.6610338376259,35.1694966448083));
#323=CARTESIAN_POINT('Ctrl Pts',(3.307632950792,-12.3404128756254,35.8379082333865));
#324=CARTESIAN_POINT('Ctrl Pts',(4.0284381446789,-12.1121706722066,36.3360499892538));
#325=CARTESIAN_POINT('Ctrl Pts',(5.16564689184153,-11.6726733182573,37.4732587364164));
#326=CARTESIAN_POINT('Ctrl Pts',(5.66254877405008,-11.4298299781534,38.1935004694386));
#327=CARTESIAN_POINT('Ctrl Pts',(6.32994951129584,-11.0741693303336,39.7885333214192));
#328=CARTESIAN_POINT('Ctrl Pts',(6.5,-10.9687054842402,40.6651426987405));
#329=CARTESIAN_POINT('Ctrl Pts',(6.5,-10.9687054842402,41.5));
#330=CARTESIAN_POINT('Origin',(0.,0.,15.));
#331=CARTESIAN_POINT('',(-6.5,-29.2873692912149,200.));
#332=CARTESIAN_POINT('',(-6.5,-29.2873692912149,15.));
#333=CARTESIAN_POINT('',(30.,3.67394039744206E-15,200.));
#334=CARTESIAN_POINT('Origin',(0.,0.,200.));
#335=CARTESIAN_POINT('',(30.,3.67394039744206E-15,15.));
#336=CARTESIAN_POINT('',(30.,3.67394039744206E-15,15.));
#337=CARTESIAN_POINT('Origin',(0.,0.,15.));
#338=CARTESIAN_POINT('',(6.5,-29.2873692912149,200.));
#339=CARTESIAN_POINT('Origin',(0.,0.,200.));
#340=CARTESIAN_POINT('',(6.5,-29.2873692912149,15.));
#341=CARTESIAN_POINT('Origin',(6.5,-10.9687054842402,200.));
#342=CARTESIAN_POINT('',(6.5,-10.9687054842402,200.));
#343=CARTESIAN_POINT('',(6.5,-5.48435274212008,200.));
#344=CARTESIAN_POINT('',(6.5,-10.9687054842402,200.));
#345=CARTESIAN_POINT('Origin',(-6.5,-29.2873692912149,200.));
#346=CARTESIAN_POINT('',(-6.5,-10.9687054842402,200.));
#347=CARTESIAN_POINT('',(-6.5,-14.6436846456075,200.));
#348=CARTESIAN_POINT('',(-6.5,-10.9687054842402,200.));
#349=CARTESIAN_POINT('Origin',(0.,0.,200.));
#350=CARTESIAN_POINT('',(12.75,-1.56142466891288E-15,200.));
#351=CARTESIAN_POINT('Origin',(0.,0.,200.));
#352=CARTESIAN_POINT('Origin',(0.,0.,200.));
#353=CARTESIAN_POINT('Origin',(0.,0.,200.));
#354=CARTESIAN_POINT('',(12.75,1.56142466891288E-15,15.));
#355=CARTESIAN_POINT('',(12.75,-1.56142466891288E-15,200.));
#356=CARTESIAN_POINT('Origin',(0.,0.,15.));
#357=CARTESIAN_POINT('Origin',(0.,0.,15.));
#358=CARTESIAN_POINT('Origin',(0.,0.,0.));
#359=CARTESIAN_POINT('',(-50.,-6.12323399573677E-15,15.));
#360=CARTESIAN_POINT('Origin',(0.,0.,15.));
#361=CARTESIAN_POINT('',(-50.,-6.12323399573677E-15,0.));
#362=CARTESIAN_POINT('',(-50.,-6.12323399573677E-15,0.));
#363=CARTESIAN_POINT('Origin',(0.,0.,0.));
#364=CARTESIAN_POINT('Origin',(0.,0.,15.));
#365=CARTESIAN_POINT('Origin',(0.,0.,0.));
#366=UNCERTAINTY_MEASURE_WITH_UNIT(LENGTH_MEASURE(0.01),#370,
'DISTANCE_ACCURACY_VALUE',
'Maximum model space distance between geometric entities at asserted c
onnectivities');
#367=UNCERTAINTY_MEASURE_WITH_UNIT(LENGTH_MEASURE(0.01),#370,
'DISTANCE_ACCURACY_VALUE',
'Maximum model space distance between geometric entities at asserted c
onnectivities');
#368=(
GEOMETRIC_REPRESENTATION_CONTEXT(3)
GLOBAL_UNCERTAINTY_ASSIGNED_CONTEXT((#366))
GLOBAL_UNIT_ASSIGNED_CONTEXT((#370,#372,#373))
REPRESENTATION_CONTEXT('','3D')
);
#369=(
GEOMETRIC_REPRESENTATION_CONTEXT(3)
GLOBAL_UNCERTAINTY_ASSIGNED_CONTEXT((#367))
GLOBAL_UNIT_ASSIGNED_CONTEXT((#370,#372,#373))
REPRESENTATION_CONTEXT('','3D')
);
#370=(
LENGTH_UNIT()
NAMED_UNIT(*)
SI_UNIT(.MILLI.,.METRE.)
);
#371=(
LENGTH_UNIT()
NAMED_UNIT(*)
SI_UNIT($,.METRE.)
);
#372=(
NAMED_UNIT(*)
PLANE_ANGLE_UNIT()
SI_UNIT($,.RADIAN.)
);
#373=(
NAMED_UNIT(*)
SI_UNIT($,.STERADIAN.)
SOLID_ANGLE_UNIT()
);
#374=SHAPE_DEFINITION_REPRESENTATION(#375,#376);
#375=PRODUCT_DEFINITION_SHAPE('',$,#378);
#376=SHAPE_REPRESENTATION('',(#202),#368);
#377=PRODUCT_DEFINITION_CONTEXT('part definition',#382,'design');
#378=PRODUCT_DEFINITION('Support vertical','Support vertical v2',#379,#377);
#379=PRODUCT_DEFINITION_FORMATION('',$,#384);
#380=PRODUCT_RELATED_PRODUCT_CATEGORY('Support vertical v2',
'Support vertical v2',(#384));
#381=APPLICATION_PROTOCOL_DEFINITION('international standard',
'automotive_design',2009,#382);
#382=APPLICATION_CONTEXT(
'Core Data for Automotive Mechanical Design Process');
#383=PRODUCT_CONTEXT('part definition',#382,'mechanical');
#384=PRODUCT('Support vertical','Support vertical v2',$,(#383));
#385=PRESENTATION_STYLE_ASSIGNMENT((#386));
#386=SURFACE_STYLE_USAGE(.BOTH.,#387);
#387=SURFACE_SIDE_STYLE('',(#388));
#388=SURFACE_STYLE_FILL_AREA(#389);
#389=FILL_AREA_STYLE('Surface - Matte',(#390));
#390=FILL_AREA_STYLE_COLOUR('Surface - Matte',#391);
#391=COLOUR_RGB('Surface - Matte',0.701960784313725,0.701960784313725,0.701960784313725);
ENDSEC;
END-ISO-10303-21;
