ISO-10303-21;
HEADER;
FILE_DESCRIPTION (( 'STEP AP214' ),
    '1' );
FILE_NAME ('ROF1005-flasque roue folle.STEP',
    '2020-04-30T15:05:38',
    ( '' ),
    ( '' ),
    'SwSTEP 2.0',
    'SolidWorks 2016',
    '' );
FILE_SCHEMA (( 'AUTOMOTIVE_DESIGN' ));
ENDSEC;

DATA;
#1 = UNCERTAINTY_MEASURE_WITH_UNIT (LENGTH_MEASURE( 1.000000000000000100E-005 ), #149, 'distance_accuracy_value', 'NONE');
#2 = DIRECTION ( 'NONE',  ( -1.000000000000000000, 0.0000000000000000000, 0.0000000000000000000 ) ) ;
#3 = ADVANCED_FACE ( 'NONE', ( #60 ), #62, .F. ) ;
#4 =( NAMED_UNIT ( * ) SI_UNIT ( $, .STERADIAN. ) SOLID_ANGLE_UNIT ( ) );
#5 =( NAMED_UNIT ( * ) PLANE_ANGLE_UNIT ( ) SI_UNIT ( $, .RADIAN. ) );
#6 = ORIENTED_EDGE ( 'NONE', *, *, #151, .F. ) ;
#7 = CARTESIAN_POINT ( 'NONE',  ( 0.0000000000000000000, 0.0000000000000000000, 0.0000000000000000000 ) ) ;
#8 = SURFACE_SIDE_STYLE ('',( #15 ) ) ;
#9 = AXIS2_PLACEMENT_3D ( 'NONE', #68, #33, #2 ) ;
#10 = CARTESIAN_POINT ( 'NONE',  ( 0.0000000000000000000, 0.0000000000000000000, 2.000000000000000000 ) ) ;
#11 = FACE_BOUND ( 'NONE', #30, .T. ) ;
#12 = DIRECTION ( 'NONE',  ( 0.0000000000000000000, 0.0000000000000000000, 1.000000000000000000 ) ) ;
#13 =( NAMED_UNIT ( * ) PLANE_ANGLE_UNIT ( ) SI_UNIT ( $, .RADIAN. ) );
#14 = ORIENTED_EDGE ( 'NONE', *, *, #193, .T. ) ;
#15 = SURFACE_STYLE_FILL_AREA ( #126 ) ;
#16 = CARTESIAN_POINT ( 'NONE',  ( 0.0000000000000000000, 0.0000000000000000000, 0.0000000000000000000 ) ) ;
#17 = CIRCLE ( 'NONE', #174, 20.10000000000000100 ) ;
#18 = CARTESIAN_POINT ( 'NONE',  ( 0.0000000000000000000, 0.0000000000000000000, 2.000000000000000000 ) ) ;
#19 = DIRECTION ( 'NONE',  ( 1.000000000000000000, 0.0000000000000000000, -0.0000000000000000000 ) ) ;
#20 = DIRECTION ( 'NONE',  ( 1.000000000000000000, 0.0000000000000000000, 0.0000000000000000000 ) ) ;
#21 = DIRECTION ( 'NONE',  ( 0.0000000000000000000, 0.0000000000000000000, 1.000000000000000000 ) ) ;
#22 = ORIENTED_EDGE ( 'NONE', *, *, #132, .F. ) ;
#23 = CARTESIAN_POINT ( 'NONE',  ( 0.0000000000000000000, 0.0000000000000000000, 0.0000000000000000000 ) ) ;
#24 = ADVANCED_BREP_SHAPE_REPRESENTATION ( 'ROF1005-flasque roue folle', ( #61, #122 ), #195 ) ;
#25 = AXIS2_PLACEMENT_3D ( 'NONE', #161, #203, #40 ) ;
#26 = SURFACE_STYLE_USAGE ( .BOTH. , #170 ) ;
#27 = ORIENTED_EDGE ( 'NONE', *, *, #159, .F. ) ;
#28 = AXIS2_PLACEMENT_3D ( 'NONE', #7, #121, #162 ) ;
#29 = SHAPE_DEFINITION_REPRESENTATION ( #148, #24 ) ;
#30 = EDGE_LOOP ( 'NONE', ( #197, #27 ) ) ;
#31 = EDGE_CURVE ( 'NONE', #145, #194, #55, .T. ) ;
#32 = VERTEX_POINT ( 'NONE', #34 ) ;
#33 = DIRECTION ( 'NONE',  ( -0.0000000000000000000, -0.0000000000000000000, -1.000000000000000000 ) ) ;
#34 = CARTESIAN_POINT ( 'NONE',  ( 5.099999999999999600, 0.0000000000000000000, 0.0000000000000000000 ) ) ;
#35 = DIRECTION ( 'NONE',  ( 0.0000000000000000000, 0.0000000000000000000, 1.000000000000000000 ) ) ;
#36 = DIRECTION ( 'NONE',  ( -0.0000000000000000000, -0.0000000000000000000, 1.000000000000000000 ) ) ;
#37 = CARTESIAN_POINT ( 'NONE',  ( 0.0000000000000000000, 0.0000000000000000000, 2.000000000000000000 ) ) ;
#38 = CIRCLE ( 'NONE', #130, 5.099999999999999600 ) ;
#39 = ORIENTED_EDGE ( 'NONE', *, *, #82, .T. ) ;
#40 = DIRECTION ( 'NONE',  ( 1.000000000000000000, 0.0000000000000000000, 0.0000000000000000000 ) ) ;
#41 = CARTESIAN_POINT ( 'NONE',  ( -20.10000000000000100, 0.0000000000000000000, 0.0000000000000000000 ) ) ;
#42 = LINE ( 'NONE', #108, #180 ) ;
#43 = ORIENTED_EDGE ( 'NONE', *, *, #190, .T. ) ;
#44 = EDGE_CURVE ( 'NONE', #194, #171, #46, .T. ) ;
#45 = PRODUCT_CONTEXT ( 'NONE', #211, 'mechanical' ) ;
#46 = LINE ( 'NONE', #67, #210 ) ;
#47 = PRODUCT_DEFINITION ( 'UNKNOWN', '', #134, #117 ) ;
#48 = FACE_OUTER_BOUND ( 'NONE', #106, .T. ) ;
#49 = AXIS2_PLACEMENT_3D ( 'NONE', #100, #206, #147 ) ;
#50 = ORIENTED_EDGE ( 'NONE', *, *, #135, .T. ) ;
#51 = STYLED_ITEM ( 'NONE', ( #116 ), #24 ) ;
#52 = ADVANCED_FACE ( 'NONE', ( #112 ), #187, .F. ) ;
#53 = CARTESIAN_POINT ( 'NONE',  ( 20.10000000000000100, 2.461540066286179900E-015, 0.0000000000000000000 ) ) ;
#54 = VECTOR ( 'NONE', #56, 1000.000000000000000 ) ;
#55 = CIRCLE ( 'NONE', #101, 20.10000000000000100 ) ;
#56 = DIRECTION ( 'NONE',  ( -0.0000000000000000000, -0.0000000000000000000, -1.000000000000000000 ) ) ;
#57 = CARTESIAN_POINT ( 'NONE',  ( 20.10000000000000100, 2.461540066286179900E-015, 2.000000000000000000 ) ) ;
#58 = DIRECTION ( 'NONE',  ( 1.000000000000000000, 0.0000000000000000000, 0.0000000000000000000 ) ) ;
#59 = LINE ( 'NONE', #205, #54 ) ;
#60 = FACE_OUTER_BOUND ( 'NONE', #165, .T. ) ;
#61 = MANIFOLD_SOLID_BREP ( 'Enlèv. mat.-Extru.1', #120 ) ;
#62 = CYLINDRICAL_SURFACE ( 'NONE', #79, 5.099999999999999600 ) ;
#63 = EDGE_LOOP ( 'NONE', ( #78, #50 ) ) ;
#64 = ORIENTED_EDGE ( 'NONE', *, *, #176, .F. ) ;
#65 = ADVANCED_FACE ( 'NONE', ( #77, #204 ), #96, .F. ) ;
#66 = EDGE_LOOP ( 'NONE', ( #104, #22 ) ) ;
#67 = CARTESIAN_POINT ( 'NONE',  ( 20.10000000000000100, 2.461540066286179900E-015, 2.000000000000000000 ) ) ;
#68 = CARTESIAN_POINT ( 'NONE',  ( 0.0000000000000000000, 0.0000000000000000000, 2.000000000000000000 ) ) ;
#69 = SURFACE_STYLE_USAGE ( .BOTH. , #8 ) ;
#70 = DIRECTION ( 'NONE',  ( -0.0000000000000000000, -0.0000000000000000000, 1.000000000000000000 ) ) ;
#71 = CARTESIAN_POINT ( 'NONE',  ( -20.10000000000000100, 0.0000000000000000000, 2.000000000000000000 ) ) ;
#72 = PLANE ( 'NONE',  #172 ) ;
#73 = ORIENTED_EDGE ( 'NONE', *, *, #135, .F. ) ;
#74 = ORIENTED_EDGE ( 'NONE', *, *, #103, .F. ) ;
#75 = DIRECTION ( 'NONE',  ( 0.0000000000000000000, 0.0000000000000000000, 1.000000000000000000 ) ) ;
#76 = FACE_OUTER_BOUND ( 'NONE', #110, .T. ) ;
#77 = FACE_BOUND ( 'NONE', #63, .T. ) ;
#78 = ORIENTED_EDGE ( 'NONE', *, *, #176, .T. ) ;
#79 = AXIS2_PLACEMENT_3D ( 'NONE', #98, #198, #20 ) ;
#80 = PRODUCT_RELATED_PRODUCT_CATEGORY ( 'part', '', ( #152 ) ) ;
#81 = ORIENTED_EDGE ( 'NONE', *, *, #151, .T. ) ;
#82 = EDGE_CURVE ( 'NONE', #32, #87, #42, .T. ) ;
#83 = ORIENTED_EDGE ( 'NONE', *, *, #44, .F. ) ;
#84 = FILL_AREA_STYLE_COLOUR ( '', #124 ) ;
#85 =( NAMED_UNIT ( * ) PLANE_ANGLE_UNIT ( ) SI_UNIT ( $, .RADIAN. ) );
#86 = STYLED_ITEM ( 'NONE', ( #153 ), #61 ) ;
#87 = VERTEX_POINT ( 'NONE', #168 ) ;
#88 = DIRECTION ( 'NONE',  ( -1.000000000000000000, 0.0000000000000000000, 0.0000000000000000000 ) ) ;
#89 = DIRECTION ( 'NONE',  ( 0.0000000000000000000, 0.0000000000000000000, 1.000000000000000000 ) ) ;
#90 =( GEOMETRIC_REPRESENTATION_CONTEXT ( 3 ) GLOBAL_UNCERTAINTY_ASSIGNED_CONTEXT ( ( #1 ) ) GLOBAL_UNIT_ASSIGNED_CONTEXT ( ( #149, #13, #191 ) ) REPRESENTATION_CONTEXT ( 'NONE', 'WORKASPACE' ) );
#91 = ORIENTED_EDGE ( 'NONE', *, *, #103, .T. ) ;
#92 = CIRCLE ( 'NONE', #184, 5.099999999999999600 ) ;
#93 = DIRECTION ( 'NONE',  ( 1.000000000000000000, 0.0000000000000000000, 0.0000000000000000000 ) ) ;
#94 = EDGE_LOOP ( 'NONE', ( #73, #81, #213, #140 ) ) ;
#95 = DIRECTION ( 'NONE',  ( 0.0000000000000000000, 0.0000000000000000000, 1.000000000000000000 ) ) ;
#96 = PLANE ( 'NONE',  #209 ) ;
#97 = DIRECTION ( 'NONE',  ( 1.000000000000000000, 0.0000000000000000000, -0.0000000000000000000 ) ) ;
#98 = CARTESIAN_POINT ( 'NONE',  ( 0.0000000000000000000, 0.0000000000000000000, 0.0000000000000000000 ) ) ;
#99 = VERTEX_POINT ( 'NONE', #142 ) ;
#100 = CARTESIAN_POINT ( 'NONE',  ( 0.0000000000000000000, 0.0000000000000000000, 0.0000000000000000000 ) ) ;
#101 = AXIS2_PLACEMENT_3D ( 'NONE', #185, #21, #201 ) ;
#102 = CARTESIAN_POINT ( 'NONE',  ( 0.0000000000000000000, 0.0000000000000000000, 2.000000000000000000 ) ) ;
#103 = EDGE_CURVE ( 'NONE', #194, #145, #17, .T. ) ;
#104 = ORIENTED_EDGE ( 'NONE', *, *, #193, .F. ) ;
#105 = PRESENTATION_LAYER_ASSIGNMENT (  '', '', ( #86 ) ) ;
#106 = EDGE_LOOP ( 'NONE', ( #137, #91 ) ) ;
#107 = PRESENTATION_LAYER_ASSIGNMENT (  '', '', ( #51 ) ) ;
#108 = CARTESIAN_POINT ( 'NONE',  ( 5.099999999999999600, 0.0000000000000000000, 0.0000000000000000000 ) ) ;
#109 =( NAMED_UNIT ( * ) SI_UNIT ( $, .STERADIAN. ) SOLID_ANGLE_UNIT ( ) );
#110 = EDGE_LOOP ( 'NONE', ( #74, #177, #115, #133 ) ) ;
#111 = DIRECTION ( 'NONE',  ( 1.000000000000000000, 0.0000000000000000000, 0.0000000000000000000 ) ) ;
#112 = FACE_OUTER_BOUND ( 'NONE', #94, .T. ) ;
#113 = AXIS2_PLACEMENT_3D ( 'NONE', #202, #143, #123 ) ;
#114 = CIRCLE ( 'NONE', #113, 20.10000000000000100 ) ;
#115 = ORIENTED_EDGE ( 'NONE', *, *, #132, .T. ) ;
#116 = PRESENTATION_STYLE_ASSIGNMENT (( #26 ) ) ;
#117 = PRODUCT_DEFINITION_CONTEXT ( 'detailed design', #169, 'design' ) ;
#118 = CYLINDRICAL_SURFACE ( 'NONE', #138, 20.10000000000000100 ) ;
#119 = LINE ( 'NONE', #166, #178 ) ;
#120 = CLOSED_SHELL ( 'NONE', ( #52, #167, #163, #146, #65, #3 ) ) ;
#121 = DIRECTION ( 'NONE',  ( 0.0000000000000000000, 0.0000000000000000000, 1.000000000000000000 ) ) ;
#122 = AXIS2_PLACEMENT_3D ( 'NONE', #16, #75, #129 ) ;
#123 = DIRECTION ( 'NONE',  ( 1.000000000000000000, 0.0000000000000000000, 0.0000000000000000000 ) ) ;
#124 = COLOUR_RGB ( '',0.6470588235294118000, 0.6196078431372549200, 0.5843137254901961100 ) ;
#125 = CARTESIAN_POINT ( 'NONE',  ( 0.0000000000000000000, 0.0000000000000000000, 2.000000000000000000 ) ) ;
#126 = FILL_AREA_STYLE ('',( #84 ) ) ;
#127 =( LENGTH_UNIT ( ) NAMED_UNIT ( * ) SI_UNIT ( .MILLI., .METRE. ) );
#128 = CIRCLE ( 'NONE', #156, 5.099999999999999600 ) ;
#129 = DIRECTION ( 'NONE',  ( 1.000000000000000000, 0.0000000000000000000, 0.0000000000000000000 ) ) ;
#130 = AXIS2_PLACEMENT_3D ( 'NONE', #37, #35, #200 ) ;
#131 = APPLICATION_PROTOCOL_DEFINITION ( 'draft international standard', 'automotive_design', 1998, #169 ) ;
#132 = EDGE_CURVE ( 'NONE', #171, #150, #139, .T. ) ;
#133 = ORIENTED_EDGE ( 'NONE', *, *, #190, .F. ) ;
#134 = PRODUCT_DEFINITION_FORMATION_WITH_SPECIFIED_SOURCE ( 'ANY', '', #152, .NOT_KNOWN. ) ;
#135 = EDGE_CURVE ( 'NONE', #99, #32, #92, .T. ) ;
#136 = EDGE_LOOP ( 'NONE', ( #83, #173, #43, #14 ) ) ;
#137 = ORIENTED_EDGE ( 'NONE', *, *, #31, .T. ) ;
#138 = AXIS2_PLACEMENT_3D ( 'NONE', #18, #160, #88 ) ;
#139 = CIRCLE ( 'NONE', #49, 20.10000000000000100 ) ;
#140 = ORIENTED_EDGE ( 'NONE', *, *, #82, .F. ) ;
#141 = DIRECTION ( 'NONE',  ( 0.0000000000000000000, 0.0000000000000000000, 1.000000000000000000 ) ) ;
#142 = CARTESIAN_POINT ( 'NONE',  ( -5.099999999999999600, 6.245698675651500800E-016, 0.0000000000000000000 ) ) ;
#143 = DIRECTION ( 'NONE',  ( 0.0000000000000000000, 0.0000000000000000000, 1.000000000000000000 ) ) ;
#144 =( GEOMETRIC_REPRESENTATION_CONTEXT ( 3 ) GLOBAL_UNCERTAINTY_ASSIGNED_CONTEXT ( ( #207 ) ) GLOBAL_UNIT_ASSIGNED_CONTEXT ( ( #127, #85, #4 ) ) REPRESENTATION_CONTEXT ( 'NONE', 'WORKASPACE' ) );
#145 = VERTEX_POINT ( 'NONE', #71 ) ;
#146 = ADVANCED_FACE ( 'NONE', ( #11, #48 ), #72, .T. ) ;
#147 = DIRECTION ( 'NONE',  ( 1.000000000000000000, 0.0000000000000000000, 0.0000000000000000000 ) ) ;
#148 = PRODUCT_DEFINITION_SHAPE ( 'NONE', 'NONE',  #47 ) ;
#149 =( LENGTH_UNIT ( ) NAMED_UNIT ( * ) SI_UNIT ( .MILLI., .METRE. ) );
#150 = VERTEX_POINT ( 'NONE', #41 ) ;
#151 = EDGE_CURVE ( 'NONE', #99, #155, #119, .T. ) ;
#152 = PRODUCT ( 'ROF1005-flasque roue folle', 'ROF1005-flasque roue folle', '', ( #45 ) ) ;
#153 = PRESENTATION_STYLE_ASSIGNMENT (( #69 ) ) ;
#154 = CIRCLE ( 'NONE', #28, 5.099999999999999600 ) ;
#155 = VERTEX_POINT ( 'NONE', #183 ) ;
#156 = AXIS2_PLACEMENT_3D ( 'NONE', #125, #141, #93 ) ;
#157 = UNCERTAINTY_MEASURE_WITH_UNIT (LENGTH_MEASURE( 1.000000000000000100E-005 ), #182, 'distance_accuracy_value', 'NONE');
#158 = COLOUR_RGB ( '',0.6470588235294118000, 0.6196078431372549200, 0.5843137254901961100 ) ;
#159 = EDGE_CURVE ( 'NONE', #155, #87, #128, .T. ) ;
#160 = DIRECTION ( 'NONE',  ( -0.0000000000000000000, -0.0000000000000000000, -1.000000000000000000 ) ) ;
#161 = CARTESIAN_POINT ( 'NONE',  ( 0.0000000000000000000, 0.0000000000000000000, 0.0000000000000000000 ) ) ;
#162 = DIRECTION ( 'NONE',  ( 1.000000000000000000, 0.0000000000000000000, 0.0000000000000000000 ) ) ;
#163 = ADVANCED_FACE ( 'NONE', ( #212 ), #196, .T. ) ;
#164 = SURFACE_STYLE_FILL_AREA ( #208 ) ;
#165 = EDGE_LOOP ( 'NONE', ( #6, #64, #39, #192 ) ) ;
#166 = CARTESIAN_POINT ( 'NONE',  ( -5.099999999999999600, 6.245698675651500800E-016, 0.0000000000000000000 ) ) ;
#167 = ADVANCED_FACE ( 'NONE', ( #76 ), #118, .T. ) ;
#168 = CARTESIAN_POINT ( 'NONE',  ( 5.099999999999999600, 0.0000000000000000000, 2.000000000000000000 ) ) ;
#169 = APPLICATION_CONTEXT ( 'automotive_design' ) ;
#170 = SURFACE_SIDE_STYLE ('',( #164 ) ) ;
#171 = VERTEX_POINT ( 'NONE', #53 ) ;
#172 = AXIS2_PLACEMENT_3D ( 'NONE', #10, #95, #97 ) ;
#173 = ORIENTED_EDGE ( 'NONE', *, *, #31, .F. ) ;
#174 = AXIS2_PLACEMENT_3D ( 'NONE', #102, #12, #111 ) ;
#175 = MECHANICAL_DESIGN_GEOMETRIC_PRESENTATION_REPRESENTATION (  '', ( #86 ), #144 ) ;
#176 = EDGE_CURVE ( 'NONE', #32, #99, #154, .T. ) ;
#177 = ORIENTED_EDGE ( 'NONE', *, *, #44, .T. ) ;
#178 = VECTOR ( 'NONE', #70, 1000.000000000000000 ) ;
#179 = MECHANICAL_DESIGN_GEOMETRIC_PRESENTATION_REPRESENTATION (  '', ( #51 ), #90 ) ;
#180 = VECTOR ( 'NONE', #36, 1000.000000000000000 ) ;
#181 = DIRECTION ( 'NONE',  ( -0.0000000000000000000, -0.0000000000000000000, -1.000000000000000000 ) ) ;
#182 =( LENGTH_UNIT ( ) NAMED_UNIT ( * ) SI_UNIT ( .MILLI., .METRE. ) );
#183 = CARTESIAN_POINT ( 'NONE',  ( -5.099999999999999600, 6.245698675651500800E-016, 2.000000000000000000 ) ) ;
#184 = AXIS2_PLACEMENT_3D ( 'NONE', #188, #89, #58 ) ;
#185 = CARTESIAN_POINT ( 'NONE',  ( 0.0000000000000000000, 0.0000000000000000000, 2.000000000000000000 ) ) ;
#186 = FILL_AREA_STYLE_COLOUR ( '', #158 ) ;
#187 = CYLINDRICAL_SURFACE ( 'NONE', #25, 5.099999999999999600 ) ;
#188 = CARTESIAN_POINT ( 'NONE',  ( 0.0000000000000000000, 0.0000000000000000000, 0.0000000000000000000 ) ) ;
#189 = APPLICATION_PROTOCOL_DEFINITION ( 'draft international standard', 'automotive_design', 1998, #211 ) ;
#190 = EDGE_CURVE ( 'NONE', #145, #150, #59, .T. ) ;
#191 =( NAMED_UNIT ( * ) SI_UNIT ( $, .STERADIAN. ) SOLID_ANGLE_UNIT ( ) );
#192 = ORIENTED_EDGE ( 'NONE', *, *, #214, .T. ) ;
#193 = EDGE_CURVE ( 'NONE', #150, #171, #114, .T. ) ;
#194 = VERTEX_POINT ( 'NONE', #57 ) ;
#195 =( GEOMETRIC_REPRESENTATION_CONTEXT ( 3 ) GLOBAL_UNCERTAINTY_ASSIGNED_CONTEXT ( ( #157 ) ) GLOBAL_UNIT_ASSIGNED_CONTEXT ( ( #182, #5, #109 ) ) REPRESENTATION_CONTEXT ( 'NONE', 'WORKASPACE' ) );
#196 = CYLINDRICAL_SURFACE ( 'NONE', #9, 20.10000000000000100 ) ;
#197 = ORIENTED_EDGE ( 'NONE', *, *, #214, .F. ) ;
#198 = DIRECTION ( 'NONE',  ( -0.0000000000000000000, -0.0000000000000000000, 1.000000000000000000 ) ) ;
#199 = DIRECTION ( 'NONE',  ( 0.0000000000000000000, 0.0000000000000000000, 1.000000000000000000 ) ) ;
#200 = DIRECTION ( 'NONE',  ( 1.000000000000000000, 0.0000000000000000000, 0.0000000000000000000 ) ) ;
#201 = DIRECTION ( 'NONE',  ( 1.000000000000000000, 0.0000000000000000000, 0.0000000000000000000 ) ) ;
#202 = CARTESIAN_POINT ( 'NONE',  ( 0.0000000000000000000, 0.0000000000000000000, 0.0000000000000000000 ) ) ;
#203 = DIRECTION ( 'NONE',  ( -0.0000000000000000000, -0.0000000000000000000, 1.000000000000000000 ) ) ;
#204 = FACE_OUTER_BOUND ( 'NONE', #66, .T. ) ;
#205 = CARTESIAN_POINT ( 'NONE',  ( -20.10000000000000100, 0.0000000000000000000, 2.000000000000000000 ) ) ;
#206 = DIRECTION ( 'NONE',  ( 0.0000000000000000000, 0.0000000000000000000, 1.000000000000000000 ) ) ;
#207 = UNCERTAINTY_MEASURE_WITH_UNIT (LENGTH_MEASURE( 1.000000000000000100E-005 ), #127, 'distance_accuracy_value', 'NONE');
#208 = FILL_AREA_STYLE ('',( #186 ) ) ;
#209 = AXIS2_PLACEMENT_3D ( 'NONE', #23, #199, #19 ) ;
#210 = VECTOR ( 'NONE', #181, 1000.000000000000000 ) ;
#211 = APPLICATION_CONTEXT ( 'automotive_design' ) ;
#212 = FACE_OUTER_BOUND ( 'NONE', #136, .T. ) ;
#213 = ORIENTED_EDGE ( 'NONE', *, *, #159, .T. ) ;
#214 = EDGE_CURVE ( 'NONE', #87, #155, #38, .T. ) ;
ENDSEC;
END-ISO-10303-21;
