ISO-10303-21;
HEADER;
FILE_DESCRIPTION(('CATIA V5 STEP Exchange'),'2;1');

FILE_NAME('C:\\Users\\NOSTROMO\\Desktop\\tuyere_alu.stp','2020-02-28T11:36:04+00:00',('none'),('none'),'CATIA Version 5 Release 20 GA (IN-10)','CATIA V5 STEP AP203','none');

FILE_SCHEMA(('CONFIG_CONTROL_DESIGN'));

ENDSEC;
/* file written by CATIA V5R20 */
DATA;
#5=PRODUCT('tuyere_alu','','',(#2)) ;
#1=APPLICATION_CONTEXT('configuration controlled 3D design of mechanical parts and assemblies') ;
#14=PRODUCT_DEFINITION('',' ',#6,#3) ;
#16=SECURITY_CLASSIFICATION(' ',' ',#15) ;
#15=SECURITY_CLASSIFICATION_LEVEL('unclassified') ;
#47=CARTESIAN_POINT(' ',(0.,0.,0.)) ;
#52=CARTESIAN_POINT('Axis2P3D Location',(0.,0.,-29.660000191)) ;
#57=CARTESIAN_POINT('Axis2P3D Location',(0.,0.,-20.)) ;
#61=CARTESIAN_POINT('Vertex',(12.15,0.,-20.)) ;
#63=CARTESIAN_POINT('Vertex',(-12.15,1.48794586096E-015,-20.)) ;
#66=CARTESIAN_POINT('Line Origine',(-12.15,1.48794586096E-015,-25.660000191)) ;
#70=CARTESIAN_POINT('Vertex',(-12.15,1.48794586096E-015,-30.)) ;
#73=CARTESIAN_POINT('Axis2P3D Location',(0.,0.,-30.)) ;
#77=CARTESIAN_POINT('Vertex',(12.15,0.,-30.)) ;
#80=CARTESIAN_POINT('Line Origine',(12.15,0.,-25.660000191)) ;
#92=CARTESIAN_POINT('Axis2P3D Location',(0.,0.,-20.)) ;
#97=CARTESIAN_POINT('Axis2P3D Location',(0.,0.,-30.)) ;
#109=CARTESIAN_POINT('Axis2P3D Location',(0.,15.,-20.)) ;
#115=CARTESIAN_POINT('Control Point',(6.52168662875,-11.9378672988,-20.)) ;
#116=CARTESIAN_POINT('Control Point',(9.06184294907,-10.5501735764,-20.)) ;
#117=CARTESIAN_POINT('Control Point',(11.2329036004,-8.48685802738,-20.)) ;
#118=CARTESIAN_POINT('Control Point',(12.7930356781,-5.87734266843,-20.)) ;
#119=CARTESIAN_POINT('Control Point',(13.9777659122,-1.54360561658,-20.)) ;
#120=CARTESIAN_POINT('Control Point',(13.4302851741,2.80207287469,-20.)) ;
#121=CARTESIAN_POINT('Control Point',(13.0550443059,4.21781874355,-20.)) ;
#122=CARTESIAN_POINT('Control Point',(11.9371364475,6.91546452694,-20.)) ;
#123=CARTESIAN_POINT('Control Point',(10.1530170614,9.22715648526,-20.)) ;
#124=CARTESIAN_POINT('Control Point',(9.11151595107,10.2569222409,-20.)) ;
#125=CARTESIAN_POINT('Control Point',(5.72389580588,12.8106973979,-20.)) ;
#126=CARTESIAN_POINT('Control Point',(1.53764493771,13.9491735151,-20.)) ;
#127=CARTESIAN_POINT('Control Point',(-1.34576416343,13.9689911062,-20.)) ;
#128=CARTESIAN_POINT('Control Point',(-4.10128174072,13.2601405156,-20.)) ;
#129=CARTESIAN_POINT('Control Point',(-6.52168662875,11.9378672988,-20.)) ;
#130=CARTESIAN_POINT('Vertex',(6.52168662875,-11.9378672988,-20.)) ;
#132=CARTESIAN_POINT('Vertex',(-6.52168662875,11.9378672988,-20.)) ;
#136=CARTESIAN_POINT('Control Point',(-6.52168662875,11.9378672988,-20.)) ;
#137=CARTESIAN_POINT('Control Point',(-9.06184294913,10.5501735764,-20.)) ;
#138=CARTESIAN_POINT('Control Point',(-11.2329036006,8.48685802733,-20.)) ;
#139=CARTESIAN_POINT('Control Point',(-12.7930356783,5.87734266827,-20.)) ;
#140=CARTESIAN_POINT('Control Point',(-13.9777659122,1.54360561628,-20.)) ;
#141=CARTESIAN_POINT('Control Point',(-13.4302851741,-2.80207287496,-20.)) ;
#142=CARTESIAN_POINT('Control Point',(-13.0550443058,-4.21781874399,-20.)) ;
#143=CARTESIAN_POINT('Control Point',(-11.9371364473,-6.91546452727,-20.)) ;
#144=CARTESIAN_POINT('Control Point',(-10.1530170612,-9.22715648552,-20.)) ;
#145=CARTESIAN_POINT('Control Point',(-9.11151595076,-10.2569222412,-20.)) ;
#146=CARTESIAN_POINT('Control Point',(-5.72389597486,-12.8106972704,-20.)) ;
#147=CARTESIAN_POINT('Control Point',(-1.53764535586,-13.9491734013,-20.)) ;
#148=CARTESIAN_POINT('Control Point',(1.34576209017,-13.9689923603,-20.)) ;
#149=CARTESIAN_POINT('Control Point',(4.1012819252,-13.2601404148,-20.)) ;
#150=CARTESIAN_POINT('Control Point',(6.52168662875,-11.9378672988,-20.)) ;
#162=CARTESIAN_POINT('Control Point',(6.52168662875,-11.9378672988,-28.)) ;
#163=CARTESIAN_POINT('Control Point',(9.06184294907,-10.5501735764,-28.)) ;
#164=CARTESIAN_POINT('Control Point',(11.2329036004,-8.48685802738,-28.)) ;
#165=CARTESIAN_POINT('Control Point',(12.7930356781,-5.87734266843,-28.)) ;
#166=CARTESIAN_POINT('Control Point',(13.9777659122,-1.54360561658,-28.)) ;
#167=CARTESIAN_POINT('Control Point',(13.4302851741,2.80207287469,-28.)) ;
#168=CARTESIAN_POINT('Control Point',(13.0550443059,4.21781874355,-28.)) ;
#169=CARTESIAN_POINT('Control Point',(11.9371364475,6.91546452694,-28.)) ;
#170=CARTESIAN_POINT('Control Point',(10.1530170614,9.22715648526,-28.)) ;
#171=CARTESIAN_POINT('Control Point',(9.11151595107,10.2569222409,-28.)) ;
#172=CARTESIAN_POINT('Control Point',(5.72389580588,12.8106973979,-28.)) ;
#173=CARTESIAN_POINT('Control Point',(1.53764493771,13.9491735151,-28.)) ;
#174=CARTESIAN_POINT('Control Point',(-1.34576416343,13.9689911062,-28.)) ;
#175=CARTESIAN_POINT('Control Point',(-4.10128174072,13.2601405156,-28.)) ;
#176=CARTESIAN_POINT('Control Point',(-6.52168662875,11.9378672988,-28.)) ;
#180=CARTESIAN_POINT('Line Origine',(-6.52168662875,11.9378672988,-24.)) ;
#184=CARTESIAN_POINT('Vertex',(-6.52168576194,11.9378657121,-25.)) ;
#187=CARTESIAN_POINT('Line Origine',(6.52168662875,-11.9378672988,-24.)) ;
#191=CARTESIAN_POINT('Vertex',(6.52168576194,-11.9378657121,-25.)) ;
#195=CARTESIAN_POINT('Control Point',(6.52168662875,-11.9378672988,-25.)) ;
#196=CARTESIAN_POINT('Control Point',(8.39689324767,-10.9134372539,-25.)) ;
#197=CARTESIAN_POINT('Control Point',(10.0709515899,-9.52080953687,-25.)) ;
#198=CARTESIAN_POINT('Control Point',(11.4471365953,-7.81236448945,-25.)) ;
#199=CARTESIAN_POINT('Control Point',(13.4554395474,-3.94793322526,-25.)) ;
#200=CARTESIAN_POINT('Control Point',(13.8534675356,0.388954213288,-25.)) ;
#201=CARTESIAN_POINT('Control Point',(13.6185178809,2.57012684997,-25.)) ;
#202=CARTESIAN_POINT('Control Point',(12.3060807706,6.72281858071,-25.)) ;
#203=CARTESIAN_POINT('Control Point',(9.52080532436,10.0709538267,-25.)) ;
#204=CARTESIAN_POINT('Control Point',(7.81237618323,11.4471332948,-25.)) ;
#205=CARTESIAN_POINT('Control Point',(3.94793212238,13.4554417269,-25.)) ;
#206=CARTESIAN_POINT('Control Point',(-0.388946122731,13.8534623036,-25.)) ;
#207=CARTESIAN_POINT('Control Point',(-2.57012661083,13.6185288988,-25.)) ;
#208=CARTESIAN_POINT('Control Point',(-4.64648000984,12.9622973437,-25.)) ;
#209=CARTESIAN_POINT('Control Point',(-6.52168662875,11.9378672988,-25.)) ;
#219=CARTESIAN_POINT('Control Point',(-6.52168662875,11.9378672988,-28.)) ;
#220=CARTESIAN_POINT('Control Point',(-9.06184294913,10.5501735764,-28.)) ;
#221=CARTESIAN_POINT('Control Point',(-11.2329036006,8.48685802733,-28.)) ;
#222=CARTESIAN_POINT('Control Point',(-12.7930356783,5.87734266827,-28.)) ;
#223=CARTESIAN_POINT('Control Point',(-13.9777659122,1.54360561628,-28.)) ;
#224=CARTESIAN_POINT('Control Point',(-13.4302851741,-2.80207287496,-28.)) ;
#225=CARTESIAN_POINT('Control Point',(-13.0550443058,-4.21781874399,-28.)) ;
#226=CARTESIAN_POINT('Control Point',(-11.9371364473,-6.91546452727,-28.)) ;
#227=CARTESIAN_POINT('Control Point',(-10.1530170612,-9.22715648552,-28.)) ;
#228=CARTESIAN_POINT('Control Point',(-9.11151595076,-10.2569222412,-28.)) ;
#229=CARTESIAN_POINT('Control Point',(-5.72389597486,-12.8106972704,-28.)) ;
#230=CARTESIAN_POINT('Control Point',(-1.53764535586,-13.9491734013,-28.)) ;
#231=CARTESIAN_POINT('Control Point',(1.34576209017,-13.9689923603,-28.)) ;
#232=CARTESIAN_POINT('Control Point',(4.1012819252,-13.2601404148,-28.)) ;
#233=CARTESIAN_POINT('Control Point',(6.52168662875,-11.9378672988,-28.)) ;
#238=CARTESIAN_POINT('Control Point',(-6.52168662875,11.9378672988,-25.)) ;
#239=CARTESIAN_POINT('Control Point',(-8.39689320155,10.9134372791,-25.)) ;
#240=CARTESIAN_POINT('Control Point',(-10.0709515076,9.52080960539,-25.)) ;
#241=CARTESIAN_POINT('Control Point',(-11.4471364938,7.81236461554,-25.)) ;
#242=CARTESIAN_POINT('Control Point',(-13.4554394513,3.94793347935,-25.)) ;
#243=CARTESIAN_POINT('Control Point',(-13.8534675334,-0.388953839086,-25.)) ;
#244=CARTESIAN_POINT('Control Point',(-13.6185179479,-2.57012642619,-25.)) ;
#245=CARTESIAN_POINT('Control Point',(-12.306081012,-6.72281809565,-25.)) ;
#246=CARTESIAN_POINT('Control Point',(-9.52080578177,-10.0709533767,-25.)) ;
#247=CARTESIAN_POINT('Control Point',(-7.81237675148,-11.4471328916,-25.)) ;
#248=CARTESIAN_POINT('Control Point',(-3.94793289589,-13.4554414785,-25.)) ;
#249=CARTESIAN_POINT('Control Point',(0.38894521435,-13.8534623165,-25.)) ;
#250=CARTESIAN_POINT('Control Point',(2.57012521639,-13.6185296841,-25.)) ;
#251=CARTESIAN_POINT('Control Point',(4.64648005596,-12.9622973185,-25.)) ;
#252=CARTESIAN_POINT('Control Point',(6.52168662875,-11.9378672988,-25.)) ;
#261=CARTESIAN_POINT('Axis2P3D Location',(0.,0.,-25.)) ;
#266=CARTESIAN_POINT('Axis2P3D Location',(0.,8.881784197E-016,-25.)) ;
#270=CARTESIAN_POINT('Vertex',(-8.07032989984,14.7726397918,-25.)) ;
#272=CARTESIAN_POINT('Vertex',(8.07032989984,-14.7726397918,-25.)) ;
#275=CARTESIAN_POINT('Axis2P3D Location',(0.,2.22044604925E-015,-25.)) ;
#289=CARTESIAN_POINT('Axis2P3D Location',(0.,0.,-30.)) ;
#294=CARTESIAN_POINT('Axis2P3D Location',(0.,0.,-30.)) ;
#298=CARTESIAN_POINT('Vertex',(7.19138307906,-13.1637384284,-30.)) ;
#300=CARTESIAN_POINT('Vertex',(-7.19138307906,13.1637384284,-30.)) ;
#303=CARTESIAN_POINT('Line Origine',(-9.82822354139,17.9904425188,-15.)) ;
#308=CARTESIAN_POINT('Line Origine',(9.82822354139,-17.9904425188,-15.)) ;
#320=CARTESIAN_POINT('Axis2P3D Location',(0.,0.,-30.)) ;
#332=CARTESIAN_POINT('Axis2P3D Location',(0.,15.,-30.)) ;
#53=DIRECTION('Axis2P3D Direction',(0.,0.,1.)) ;
#54=DIRECTION('Axis2P3D XDirection',(1.,0.,0.)) ;
#58=DIRECTION('Axis2P3D Direction',(0.,0.,1.)) ;
#67=DIRECTION('Vector Direction',(0.,0.,1.)) ;
#74=DIRECTION('Axis2P3D Direction',(0.,0.,1.)) ;
#81=DIRECTION('Vector Direction',(0.,0.,1.)) ;
#93=DIRECTION('Axis2P3D Direction',(0.,0.,1.)) ;
#98=DIRECTION('Axis2P3D Direction',(0.,0.,1.)) ;
#110=DIRECTION('Axis2P3D Direction',(0.,0.,1.)) ;
#111=DIRECTION('Axis2P3D XDirection',(1.,0.,0.)) ;
#177=DIRECTION('Vector Direction',(0.,0.,1.)) ;
#181=DIRECTION('Vector Direction',(0.,0.,1.)) ;
#188=DIRECTION('Vector Direction',(0.,0.,1.)) ;
#234=DIRECTION('Vector Direction',(0.,0.,1.)) ;
#262=DIRECTION('Axis2P3D Direction',(0.,0.,1.)) ;
#263=DIRECTION('Axis2P3D XDirection',(1.,0.,0.)) ;
#267=DIRECTION('Axis2P3D Direction',(0.,0.,1.)) ;
#276=DIRECTION('Axis2P3D Direction',(0.,0.,1.)) ;
#290=DIRECTION('Axis2P3D Direction',(0.,0.,1.)) ;
#291=DIRECTION('Axis2P3D XDirection',(-0.479425538604,0.87758256189,0.)) ;
#295=DIRECTION('Axis2P3D Direction',(0.,0.,1.)) ;
#304=DIRECTION('Vector Direction',(-0.16504447059,0.302111876951,0.938876315887)) ;
#309=DIRECTION('Vector Direction',(0.16504447059,-0.302111876951,0.938876315887)) ;
#321=DIRECTION('Axis2P3D Direction',(0.,0.,1.)) ;
#333=DIRECTION('Axis2P3D Direction',(0.,0.,1.)) ;
#334=DIRECTION('Axis2P3D XDirection',(1.,0.,0.)) ;
#48=AXIS2_PLACEMENT_3D(' ',#47,$,$) ;
#55=AXIS2_PLACEMENT_3D('Cylinder Axis2P3D',#52,#53,#54) ;
#59=AXIS2_PLACEMENT_3D('Circle Axis2P3D',#57,#58,$) ;
#75=AXIS2_PLACEMENT_3D('Circle Axis2P3D',#73,#74,$) ;
#94=AXIS2_PLACEMENT_3D('Circle Axis2P3D',#92,#93,$) ;
#99=AXIS2_PLACEMENT_3D('Circle Axis2P3D',#97,#98,$) ;
#112=AXIS2_PLACEMENT_3D('Plane Axis2P3D',#109,#110,#111) ;
#264=AXIS2_PLACEMENT_3D('Plane Axis2P3D',#261,#262,#263) ;
#268=AXIS2_PLACEMENT_3D('Circle Axis2P3D',#266,#267,$) ;
#277=AXIS2_PLACEMENT_3D('Circle Axis2P3D',#275,#276,$) ;
#292=AXIS2_PLACEMENT_3D('Cone Axis2P3D',#289,#290,#291) ;
#296=AXIS2_PLACEMENT_3D('Circle Axis2P3D',#294,#295,$) ;
#322=AXIS2_PLACEMENT_3D('Circle Axis2P3D',#320,#321,$) ;
#335=AXIS2_PLACEMENT_3D('Plane Axis2P3D',#332,#333,#334) ;
#40=PRODUCT_DEFINITION_SHAPE(' ',' ',#14) ;
#31=APPROVAL_PERSON_ORGANIZATION(#25,#21,#19) ;
#25=PERSON_AND_ORGANIZATION(#22,#23) ;
#22=PERSON(' ',' ',' ',$,$,$) ;
#23=ORGANIZATION(' ',' ',' ') ;
#21=APPROVAL(#20,' ') ;
#20=APPROVAL_STATUS('not_yet_approved') ;
#19=APPROVAL_ROLE('APPROVER') ;
#13=DATE_AND_TIME(#11,#12) ;
#12=LOCAL_TIME(12,36,2.,#10) ;
#10=COORDINATED_UNIVERSAL_TIME_OFFSET(0,0,.AHEAD.) ;
#86=ORIENTED_EDGE('',*,*,#65,.T.) ;
#87=ORIENTED_EDGE('',*,*,#72,.T.) ;
#88=ORIENTED_EDGE('',*,*,#79,.F.) ;
#89=ORIENTED_EDGE('',*,*,#84,.F.) ;
#103=ORIENTED_EDGE('',*,*,#96,.T.) ;
#104=ORIENTED_EDGE('',*,*,#84,.T.) ;
#105=ORIENTED_EDGE('',*,*,#101,.F.) ;
#106=ORIENTED_EDGE('',*,*,#72,.F.) ;
#153=ORIENTED_EDGE('',*,*,#134,.T.) ;
#154=ORIENTED_EDGE('',*,*,#151,.T.) ;
#157=ORIENTED_EDGE('',*,*,#65,.F.) ;
#158=ORIENTED_EDGE('',*,*,#96,.F.) ;
#212=ORIENTED_EDGE('',*,*,#186,.T.) ;
#213=ORIENTED_EDGE('',*,*,#134,.F.) ;
#214=ORIENTED_EDGE('',*,*,#193,.F.) ;
#215=ORIENTED_EDGE('',*,*,#210,.T.) ;
#255=ORIENTED_EDGE('',*,*,#193,.T.) ;
#256=ORIENTED_EDGE('',*,*,#151,.F.) ;
#257=ORIENTED_EDGE('',*,*,#186,.F.) ;
#258=ORIENTED_EDGE('',*,*,#253,.T.) ;
#281=ORIENTED_EDGE('',*,*,#274,.T.) ;
#282=ORIENTED_EDGE('',*,*,#279,.T.) ;
#285=ORIENTED_EDGE('',*,*,#210,.F.) ;
#286=ORIENTED_EDGE('',*,*,#253,.F.) ;
#314=ORIENTED_EDGE('',*,*,#302,.T.) ;
#315=ORIENTED_EDGE('',*,*,#307,.T.) ;
#316=ORIENTED_EDGE('',*,*,#279,.F.) ;
#317=ORIENTED_EDGE('',*,*,#312,.F.) ;
#326=ORIENTED_EDGE('',*,*,#274,.F.) ;
#327=ORIENTED_EDGE('',*,*,#307,.F.) ;
#328=ORIENTED_EDGE('',*,*,#324,.T.) ;
#329=ORIENTED_EDGE('',*,*,#312,.T.) ;
#338=ORIENTED_EDGE('',*,*,#324,.F.) ;
#339=ORIENTED_EDGE('',*,*,#302,.F.) ;
#342=ORIENTED_EDGE('',*,*,#101,.T.) ;
#343=ORIENTED_EDGE('',*,*,#79,.T.) ;
#159=FACE_BOUND('',#156,.T.) ;
#287=FACE_BOUND('',#284,.T.) ;
#344=FACE_BOUND('',#341,.T.) ;
#51=CLOSED_SHELL('Closed Shell',(#91,#108,#160,#217,#260,#288,#319,#331,#345)) ;
#68=VECTOR('Line Direction',#67,1.) ;
#82=VECTOR('Line Direction',#81,1.) ;
#178=VECTOR('Extrusion Surface Vector',#177,1.) ;
#182=VECTOR('Line Direction',#181,1.) ;
#189=VECTOR('Line Direction',#188,1.) ;
#235=VECTOR('Extrusion Surface Vector',#234,1.) ;
#305=VECTOR('Line Direction',#304,1.) ;
#310=VECTOR('Line Direction',#309,1.) ;
#347=ADVANCED_BREP_SHAPE_REPRESENTATION('NONE',(#346),#46) ;
#49=SHAPE_REPRESENTATION(' ',(#48),#46) ;
#91=ADVANCED_FACE('Corps principal',(#90),#56,.F.) ;
#108=ADVANCED_FACE('Corps principal',(#107),#56,.F.) ;
#160=ADVANCED_FACE('Corps principal',(#155,#159),#113,.T.) ;
#217=ADVANCED_FACE('Corps principal',(#216),#179,.T.) ;
#260=ADVANCED_FACE('Corps principal',(#259),#236,.T.) ;
#288=ADVANCED_FACE('Corps principal',(#283,#287),#265,.T.) ;
#319=ADVANCED_FACE('Corps principal',(#318),#293,.T.) ;
#331=ADVANCED_FACE('Corps principal',(#330),#293,.T.) ;
#345=ADVANCED_FACE('Corps principal',(#340,#344),#336,.F.) ;
#4=APPLICATION_PROTOCOL_DEFINITION('international standard','config_control_design',1994,#1) ;
#32=APPROVAL_DATE_TIME(#13,#21) ;
#114=B_SPLINE_CURVE_WITH_KNOTS('',5,(#115,#116,#117,#118,#119,#120,#121,#122,#123,#124,#125,#126,#127,#128,#129),.UNSPECIFIED.,.F.,.U.,(6,3,3,3,6),(77.2922472361,103.467282186,116.555360984,129.643439781,154.584496373),.UNSPECIFIED.) ;
#135=B_SPLINE_CURVE_WITH_KNOTS('',5,(#136,#137,#138,#139,#140,#141,#142,#143,#144,#145,#146,#147,#148,#149,#150),.UNSPECIFIED.,.F.,.U.,(6,3,3,3,6),(0.,26.1750349509,39.2631137478,52.3511925448,77.2922472361),.UNSPECIFIED.) ;
#161=B_SPLINE_CURVE_WITH_KNOTS('',5,(#162,#163,#164,#165,#166,#167,#168,#169,#170,#171,#172,#173,#174,#175,#176),.UNSPECIFIED.,.F.,.U.,(6,3,3,3,6),(77.2922472361,103.467282186,116.555360984,129.643439781,154.584496373),.UNSPECIFIED.) ;
#194=B_SPLINE_CURVE_WITH_KNOTS('',5,(#195,#196,#197,#198,#199,#200,#201,#202,#203,#204,#205,#206,#207,#208,#209),.UNSPECIFIED.,.F.,.U.,(6,3,3,3,6),(77.2922472361,96.6153095203,115.938371805,135.261434089,154.584496373),.UNSPECIFIED.) ;
#218=B_SPLINE_CURVE_WITH_KNOTS('',5,(#219,#220,#221,#222,#223,#224,#225,#226,#227,#228,#229,#230,#231,#232,#233),.UNSPECIFIED.,.F.,.U.,(6,3,3,3,6),(0.,26.1750349509,39.2631137478,52.3511925448,77.2922472361),.UNSPECIFIED.) ;
#237=B_SPLINE_CURVE_WITH_KNOTS('',5,(#238,#239,#240,#241,#242,#243,#244,#245,#246,#247,#248,#249,#250,#251,#252),.UNSPECIFIED.,.F.,.U.,(6,3,3,3,6),(0.,19.323061809,38.646123618,57.969185427,77.2922472361),.UNSPECIFIED.) ;
#346=MANIFOLD_SOLID_BREP('Corps principal',#51) ;
#11=CALENDAR_DATE(2020,28,2) ;
#30=CC_DESIGN_APPROVAL(#21,(#16,#6,#14)) ;
#18=CC_DESIGN_DATE_AND_TIME_ASSIGNMENT(#13,#17,(#16)) ;
#29=CC_DESIGN_DATE_AND_TIME_ASSIGNMENT(#13,#28,(#14)) ;
#17=DATE_TIME_ROLE('classification_date') ;
#28=DATE_TIME_ROLE('creation_date') ;
#27=CC_DESIGN_PERSON_AND_ORGANIZATION_ASSIGNMENT(#25,#26,(#16)) ;
#33=CC_DESIGN_PERSON_AND_ORGANIZATION_ASSIGNMENT(#25,#34,(#6)) ;
#35=CC_DESIGN_PERSON_AND_ORGANIZATION_ASSIGNMENT(#25,#36,(#6,#14)) ;
#37=CC_DESIGN_PERSON_AND_ORGANIZATION_ASSIGNMENT(#25,#38,(#5)) ;
#26=PERSON_AND_ORGANIZATION_ROLE('classification_officer') ;
#34=PERSON_AND_ORGANIZATION_ROLE('design_supplier') ;
#36=PERSON_AND_ORGANIZATION_ROLE('creator') ;
#38=PERSON_AND_ORGANIZATION_ROLE('design_owner') ;
#39=CC_DESIGN_SECURITY_CLASSIFICATION(#16,(#6)) ;
#60=CIRCLE('generated circle',#59,12.15) ;
#76=CIRCLE('generated circle',#75,12.15) ;
#95=CIRCLE('generated circle',#94,12.15) ;
#100=CIRCLE('generated circle',#99,12.15) ;
#269=CIRCLE('generated circle',#268,16.8333333333) ;
#278=CIRCLE('generated circle',#277,16.8333333333) ;
#297=CIRCLE('generated circle',#296,15.) ;
#323=CIRCLE('generated circle',#322,15.) ;
#293=CONICAL_SURFACE('Cone',#292,15.,0.351444794004) ;
#348=SHAPE_REPRESENTATION_RELATIONSHIP(' ',' ',#49,#347) ;
#56=CYLINDRICAL_SURFACE('generated cylinder',#55,12.15) ;
#3=DESIGN_CONTEXT(' ',#1,'design') ;
#65=EDGE_CURVE('',#62,#64,#60,.T.) ;
#72=EDGE_CURVE('',#64,#71,#69,.F.) ;
#79=EDGE_CURVE('',#78,#71,#76,.T.) ;
#84=EDGE_CURVE('',#62,#78,#83,.F.) ;
#96=EDGE_CURVE('',#64,#62,#95,.T.) ;
#101=EDGE_CURVE('',#71,#78,#100,.T.) ;
#134=EDGE_CURVE('',#131,#133,#114,.T.) ;
#151=EDGE_CURVE('',#133,#131,#135,.T.) ;
#186=EDGE_CURVE('',#185,#133,#183,.T.) ;
#193=EDGE_CURVE('',#192,#131,#190,.T.) ;
#210=EDGE_CURVE('',#192,#185,#194,.T.) ;
#253=EDGE_CURVE('',#185,#192,#237,.T.) ;
#274=EDGE_CURVE('',#271,#273,#269,.T.) ;
#279=EDGE_CURVE('',#273,#271,#278,.T.) ;
#302=EDGE_CURVE('',#299,#301,#297,.T.) ;
#307=EDGE_CURVE('',#301,#271,#306,.T.) ;
#312=EDGE_CURVE('',#299,#273,#311,.T.) ;
#324=EDGE_CURVE('',#301,#299,#323,.T.) ;
#85=EDGE_LOOP('',(#86,#87,#88,#89)) ;
#102=EDGE_LOOP('',(#103,#104,#105,#106)) ;
#152=EDGE_LOOP('',(#153,#154)) ;
#156=EDGE_LOOP('',(#157,#158)) ;
#211=EDGE_LOOP('',(#212,#213,#214,#215)) ;
#254=EDGE_LOOP('',(#255,#256,#257,#258)) ;
#280=EDGE_LOOP('',(#281,#282)) ;
#284=EDGE_LOOP('',(#285,#286)) ;
#313=EDGE_LOOP('',(#314,#315,#316,#317)) ;
#325=EDGE_LOOP('',(#326,#327,#328,#329)) ;
#337=EDGE_LOOP('',(#338,#339)) ;
#341=EDGE_LOOP('',(#342,#343)) ;
#90=FACE_OUTER_BOUND('',#85,.T.) ;
#107=FACE_OUTER_BOUND('',#102,.T.) ;
#155=FACE_OUTER_BOUND('',#152,.T.) ;
#216=FACE_OUTER_BOUND('',#211,.T.) ;
#259=FACE_OUTER_BOUND('',#254,.T.) ;
#283=FACE_OUTER_BOUND('',#280,.T.) ;
#318=FACE_OUTER_BOUND('',#313,.T.) ;
#330=FACE_OUTER_BOUND('',#325,.T.) ;
#340=FACE_OUTER_BOUND('',#337,.T.) ;
#45=UNCERTAINTY_MEASURE_WITH_UNIT(LENGTH_MEASURE(0.005),#41,'distance_accuracy_value','CONFUSED CURVE UNCERTAINTY') ;
#69=LINE('Line',#66,#68) ;
#83=LINE('Line',#80,#82) ;
#183=LINE('Line',#180,#182) ;
#190=LINE('Line',#187,#189) ;
#306=LINE('Line',#303,#305) ;
#311=LINE('Line',#308,#310) ;
#2=MECHANICAL_CONTEXT(' ',#1,'mechanical') ;
#24=PERSONAL_ADDRESS(' ',' ',' ',' ',' ',' ',' ',' ',' ',' ',' ',' ',(#22),' ') ;
#113=PLANE('Plane',#112) ;
#265=PLANE('Plane',#264) ;
#336=PLANE('Plane',#335) ;
#43=PLANE_ANGLE_MEASURE_WITH_UNIT(PLANE_ANGLE_MEASURE(0.0174532925199),#42) ;
#7=PRODUCT_CATEGORY('part',$) ;
#9=PRODUCT_CATEGORY_RELATIONSHIP(' ',' ',#7,#8) ;
#6=PRODUCT_DEFINITION_FORMATION_WITH_SPECIFIED_SOURCE('',' ',#5,.NOT_KNOWN.) ;
#8=PRODUCT_RELATED_PRODUCT_CATEGORY('detail',$,(#5)) ;
#50=SHAPE_DEFINITION_REPRESENTATION(#40,#49) ;
#179=SURFACE_OF_LINEAR_EXTRUSION('generated tabulated cylinder',#161,#178) ;
#236=SURFACE_OF_LINEAR_EXTRUSION('generated tabulated cylinder',#218,#235) ;
#62=VERTEX_POINT('',#61) ;
#64=VERTEX_POINT('',#63) ;
#71=VERTEX_POINT('',#70) ;
#78=VERTEX_POINT('',#77) ;
#131=VERTEX_POINT('',#130) ;
#133=VERTEX_POINT('',#132) ;
#185=VERTEX_POINT('',#184) ;
#192=VERTEX_POINT('',#191) ;
#271=VERTEX_POINT('',#270) ;
#273=VERTEX_POINT('',#272) ;
#299=VERTEX_POINT('',#298) ;
#301=VERTEX_POINT('',#300) ;
#41=(LENGTH_UNIT()NAMED_UNIT(*)SI_UNIT(.MILLI.,.METRE.)) ;
#42=(NAMED_UNIT(*)PLANE_ANGLE_UNIT()SI_UNIT($,.RADIAN.)) ;
#44=(NAMED_UNIT(*)SI_UNIT($,.STERADIAN.)SOLID_ANGLE_UNIT()) ;
#46=(GEOMETRIC_REPRESENTATION_CONTEXT(3)GLOBAL_UNCERTAINTY_ASSIGNED_CONTEXT((#45))GLOBAL_UNIT_ASSIGNED_CONTEXT((#41,#42,#44))REPRESENTATION_CONTEXT(' ',' ')) ;
ENDSEC;
END-ISO-10303-21;
