ISO-10303-21;
HEADER;
/* Generated by software containing ST-Developer
 * from STEP Tools, Inc. (www.steptools.com) 
 */
/* OPTION: using custom schema-name function */

FILE_DESCRIPTION(
/* description */ (''),
/* implementation_level */ '2;1');

FILE_NAME(
/* name */ 'pyramide_pleine',
/* time_stamp */ '2020-03-26T17:00:12+01:00',
/* author */ (''),
/* organization */ (''),
/* preprocessor_version */ 'ST-DEVELOPER v15',
/* originating_system */ '',
/* authorisation */ '');

FILE_SCHEMA (('AUTOMOTIVE_DESIGN'));
ENDSEC;

DATA;
#10=SHAPE_REPRESENTATION_RELATIONSHIP('','',#130,#13);
#11=PRESENTATION_LAYER_ASSIGNMENT('D\X\E9faut','',(#12));
#12=MANIFOLD_SOLID_BREP('brep_1',#14);
#13=ADVANCED_BREP_SHAPE_REPRESENTATION('brep_rep_0',(#12,#137),#129);
#14=CLOSED_SHELL('',(#15,#16,#17,#18,#19));
#15=ADVANCED_FACE('',(#20),#107,.T.);
#16=ADVANCED_FACE('',(#21),#108,.T.);
#17=ADVANCED_FACE('',(#22),#109,.T.);
#18=ADVANCED_FACE('',(#23),#110,.T.);
#19=ADVANCED_FACE('',(#24),#111,.T.);
#20=FACE_OUTER_BOUND('',#25,.T.);
#21=FACE_OUTER_BOUND('',#26,.T.);
#22=FACE_OUTER_BOUND('',#27,.T.);
#23=FACE_OUTER_BOUND('',#28,.T.);
#24=FACE_OUTER_BOUND('',#29,.T.);
#25=EDGE_LOOP('',(#30,#31,#32,#33,#34,#35,#36,#37,#38,#39,#40,#41));
#26=EDGE_LOOP('',(#42,#43,#44,#45,#46));
#27=EDGE_LOOP('',(#47,#48,#49,#50,#51));
#28=EDGE_LOOP('',(#52,#53,#54,#55,#56));
#29=EDGE_LOOP('',(#57,#58,#59,#60,#61));
#30=ORIENTED_EDGE('',*,*,#62,.F.);
#31=ORIENTED_EDGE('',*,*,#67,.F.);
#32=ORIENTED_EDGE('',*,*,#76,.T.);
#33=ORIENTED_EDGE('',*,*,#66,.F.);
#34=ORIENTED_EDGE('',*,*,#65,.F.);
#35=ORIENTED_EDGE('',*,*,#75,.T.);
#36=ORIENTED_EDGE('',*,*,#64,.F.);
#37=ORIENTED_EDGE('',*,*,#63,.F.);
#38=ORIENTED_EDGE('',*,*,#74,.T.);
#39=ORIENTED_EDGE('',*,*,#69,.F.);
#40=ORIENTED_EDGE('',*,*,#68,.F.);
#41=ORIENTED_EDGE('',*,*,#77,.T.);
#42=ORIENTED_EDGE('',*,*,#64,.T.);
#43=ORIENTED_EDGE('',*,*,#75,.F.);
#44=ORIENTED_EDGE('',*,*,#65,.T.);
#45=ORIENTED_EDGE('',*,*,#71,.F.);
#46=ORIENTED_EDGE('',*,*,#70,.F.);
#47=ORIENTED_EDGE('',*,*,#71,.T.);
#48=ORIENTED_EDGE('',*,*,#66,.T.);
#49=ORIENTED_EDGE('',*,*,#76,.F.);
#50=ORIENTED_EDGE('',*,*,#67,.T.);
#51=ORIENTED_EDGE('',*,*,#72,.F.);
#52=ORIENTED_EDGE('',*,*,#70,.T.);
#53=ORIENTED_EDGE('',*,*,#73,.F.);
#54=ORIENTED_EDGE('',*,*,#69,.T.);
#55=ORIENTED_EDGE('',*,*,#74,.F.);
#56=ORIENTED_EDGE('',*,*,#63,.T.);
#57=ORIENTED_EDGE('',*,*,#73,.T.);
#58=ORIENTED_EDGE('',*,*,#72,.T.);
#59=ORIENTED_EDGE('',*,*,#62,.T.);
#60=ORIENTED_EDGE('',*,*,#77,.F.);
#61=ORIENTED_EDGE('',*,*,#68,.T.);
#62=EDGE_CURVE('',#95,#94,#78,.T.);
#63=EDGE_CURVE('',#99,#97,#79,.T.);
#64=EDGE_CURVE('',#97,#100,#80,.T.);
#65=EDGE_CURVE('',#101,#96,#81,.T.);
#66=EDGE_CURVE('',#96,#102,#82,.T.);
#67=EDGE_CURVE('',#103,#95,#83,.T.);
#68=EDGE_CURVE('',#104,#98,#84,.T.);
#69=EDGE_CURVE('',#98,#105,#85,.T.);
#70=EDGE_CURVE('',#97,#106,#86,.T.);
#71=EDGE_CURVE('',#106,#96,#87,.T.);
#72=EDGE_CURVE('',#106,#95,#88,.T.);
#73=EDGE_CURVE('',#98,#106,#89,.T.);
#74=EDGE_CURVE('',#99,#105,#90,.T.);
#75=EDGE_CURVE('',#101,#100,#91,.T.);
#76=EDGE_CURVE('',#103,#102,#92,.T.);
#77=EDGE_CURVE('',#104,#94,#93,.T.);
#78=B_SPLINE_CURVE_WITH_KNOTS('',1,(#166,#167),.UNSPECIFIED.,.F.,.F.,(2,
2),(139.782770955853,139.940089198197),.UNSPECIFIED.);
#79=B_SPLINE_CURVE_WITH_KNOTS('',1,(#168,#169),.UNSPECIFIED.,.F.,.F.,(2,
2),(108.22545271351,108.382770955853),.UNSPECIFIED.);
#80=B_SPLINE_CURVE_WITH_KNOTS('',1,(#170,#171),.UNSPECIFIED.,.F.,.F.,(2,
2),(14.9413854779267,15.0987037202701),.UNSPECIFIED.);
#81=B_SPLINE_CURVE_WITH_KNOTS('',1,(#172,#173),.UNSPECIFIED.,.F.,.F.,(2,
2),(30.4840672355834,30.6413854779267),.UNSPECIFIED.);
#82=B_SPLINE_CURVE_WITH_KNOTS('',1,(#174,#175),.UNSPECIFIED.,.F.,.F.,(2,
2),(61.2827709558535,61.4400891981969),.UNSPECIFIED.);
#83=B_SPLINE_CURVE_WITH_KNOTS('',1,(#176,#177),.UNSPECIFIED.,.F.,.F.,(2,
2),(76.8254527135101,76.9827709558535),.UNSPECIFIED.);
#84=B_SPLINE_CURVE_WITH_KNOTS('',1,(#178,#179),.UNSPECIFIED.,.F.,.F.,(2,
2),(92.5254527135101,92.6827709558535),.UNSPECIFIED.);
#85=B_SPLINE_CURVE_WITH_KNOTS('',1,(#180,#181),.UNSPECIFIED.,.F.,.F.,(2,
2),(92.6827709558535,92.8400891981968),.UNSPECIFIED.);
#86=B_SPLINE_CURVE_WITH_KNOTS('',1,(#182,#183),.UNSPECIFIED.,.F.,.F.,(2,
2),(62.8,77.7413854779267),.UNSPECIFIED.);
#87=B_SPLINE_CURVE_WITH_KNOTS('',1,(#184,#185),.UNSPECIFIED.,.F.,.F.,(2,
2),(46.3413854779267,61.2827709558535),.UNSPECIFIED.);
#88=B_SPLINE_CURVE_WITH_KNOTS('',1,(#186,#187),.UNSPECIFIED.,.F.,.F.,(2,
2),(62.0413854779267,76.9827709558535),.UNSPECIFIED.);
#89=B_SPLINE_CURVE_WITH_KNOTS('',1,(#188,#189),.UNSPECIFIED.,.F.,.F.,(2,
2),(47.1,62.0413854779267),.UNSPECIFIED.);
#90=B_SPLINE_CURVE_WITH_KNOTS('',1,(#190,#191),.UNSPECIFIED.,.F.,.F.,(2,
2),(-108.22545271351,-92.8400891981968),.UNSPECIFIED.);
#91=B_SPLINE_CURVE_WITH_KNOTS('',1,(#192,#193),.UNSPECIFIED.,.F.,.F.,(2,
2),(-30.4840672355834,-15.0987037202701),.UNSPECIFIED.);
#92=B_SPLINE_CURVE_WITH_KNOTS('',1,(#194,#195),.UNSPECIFIED.,.F.,.F.,(2,
2),(-76.8254527135101,-61.4400891981969),.UNSPECIFIED.);
#93=B_SPLINE_CURVE_WITH_KNOTS('',1,(#196,#197),.UNSPECIFIED.,.F.,.F.,(2,
2),(-92.5254527135101,-77.1400891981968),.UNSPECIFIED.);
#94=VERTEX_POINT('',#153);
#95=VERTEX_POINT('',#154);
#96=VERTEX_POINT('',#155);
#97=VERTEX_POINT('',#156);
#98=VERTEX_POINT('',#157);
#99=VERTEX_POINT('',#158);
#100=VERTEX_POINT('',#159);
#101=VERTEX_POINT('',#160);
#102=VERTEX_POINT('',#161);
#103=VERTEX_POINT('',#162);
#104=VERTEX_POINT('',#163);
#105=VERTEX_POINT('',#164);
#106=VERTEX_POINT('',#165);
#107=PLANE('',#132);
#108=PLANE('',#133);
#109=PLANE('',#134);
#110=PLANE('',#135);
#111=PLANE('',#136);
#112=SHAPE_DEFINITION_REPRESENTATION(#113,#130);
#113=PRODUCT_DEFINITION_SHAPE('Document','',#115);
#114=PRODUCT_DEFINITION_CONTEXT('3D Mechanical Parts',#119,'design');
#115=PRODUCT_DEFINITION('A','First version',#116,#114);
#116=PRODUCT_DEFINITION_FORMATION_WITH_SPECIFIED_SOURCE('A',
'First version',#121,.MADE.);
#117=PRODUCT_RELATED_PRODUCT_CATEGORY('tool','tool',(#121));
#118=APPLICATION_PROTOCOL_DEFINITION('Draft International Standard',
'automotive_design',1999,#119);
#119=APPLICATION_CONTEXT(
'data for automotive mechanical design processes');
#120=PRODUCT_CONTEXT('3D Mechanical Parts',#119,'mechanical');
#121=PRODUCT('Document','Document','Rhino converted to STEP',(#120));
#122=(
LENGTH_UNIT()
NAMED_UNIT(*)
SI_UNIT(.MILLI.,.METRE.)
);
#123=(
NAMED_UNIT(*)
PLANE_ANGLE_UNIT()
SI_UNIT($,.RADIAN.)
);
#124=DIMENSIONAL_EXPONENTS(0.,0.,0.,0.,0.,0.,0.);
#125=PLANE_ANGLE_MEASURE_WITH_UNIT(PLANE_ANGLE_MEASURE(0.01745329252),#123);
#126=(
CONVERSION_BASED_UNIT('DEGREES',#125)
NAMED_UNIT(#124)
PLANE_ANGLE_UNIT()
);
#127=(
NAMED_UNIT(*)
SI_UNIT($,.STERADIAN.)
SOLID_ANGLE_UNIT()
);
#128=UNCERTAINTY_MEASURE_WITH_UNIT(LENGTH_MEASURE(0.001),#122,
'DISTANCE_ACCURACY_VALUE',
'Maximum model space distance between geometric entities at asserted c
onnectivities');
#129=(
GEOMETRIC_REPRESENTATION_CONTEXT(3)
GLOBAL_UNCERTAINTY_ASSIGNED_CONTEXT((#128))
GLOBAL_UNIT_ASSIGNED_CONTEXT((#127,#126,#122))
REPRESENTATION_CONTEXT('ID1','3D')
);
#130=SHAPE_REPRESENTATION('Document',(#131,#137),#129);
#131=AXIS2_PLACEMENT_3D('',#147,#138,#139);
#132=AXIS2_PLACEMENT_3D('',#148,#140,$);
#133=AXIS2_PLACEMENT_3D('',#149,#141,$);
#134=AXIS2_PLACEMENT_3D('',#150,#142,$);
#135=AXIS2_PLACEMENT_3D('',#151,#143,$);
#136=AXIS2_PLACEMENT_3D('',#152,#144,$);
#137=AXIS2_PLACEMENT_3D('',#198,#145,#146);
#138=DIRECTION('',(0.,0.,1.));
#139=DIRECTION('',(1.,0.,0.));
#140=DIRECTION('',(0.,0.,-1.));
#141=DIRECTION('',(8.73291674215795E-17,-0.786591211716802,0.617474101197689));
#142=DIRECTION('',(0.786591211716801,6.54968755661826E-18,0.617474101197689));
#143=DIRECTION('',(-0.786591211716801,1.33786059542919E-16,0.617474101197689));
#144=DIRECTION('',(3.49316669686318E-18,0.786591211716801,0.617474101197689));
#145=DIRECTION('',(0.,0.,1.));
#146=DIRECTION('',(1.,0.,0.));
#147=CARTESIAN_POINT('',(0.,0.,0.));
#148=CARTESIAN_POINT('',(-1.56999999999999,-262.765118332903,0.));
#149=CARTESIAN_POINT('',(1.33226762955019E-15,-261.195118332903,6.66133814775094E-16));
#150=CARTESIAN_POINT('',(157.,-261.195118332903,-7.17204073907851E-14));
#151=CARTESIAN_POINT('',(78.5,-261.195118332903,100.));
#152=CARTESIAN_POINT('',(1.33226762955019E-15,-182.695118332903,100.));
#153=CARTESIAN_POINT('',(155.426817576566,-104.195118332903,0.));
#154=CARTESIAN_POINT('',(157.,-104.195118332903,0.));
#155=CARTESIAN_POINT('',(157.,-261.195118332903,0.));
#156=CARTESIAN_POINT('',(0.,-261.195118332903,0.));
#157=CARTESIAN_POINT('',(0.,-104.195118332903,0.));
#158=CARTESIAN_POINT('',(0.,-259.62193590947,0.));
#159=CARTESIAN_POINT('',(1.5731824234336,-261.195118332903,0.));
#160=CARTESIAN_POINT('',(155.426817576567,-261.195118332903,0.));
#161=CARTESIAN_POINT('',(157.,-259.62193590947,0.));
#162=CARTESIAN_POINT('',(157.,-105.768300756337,0.));
#163=CARTESIAN_POINT('',(1.57318242343365,-104.195118332903,0.));
#164=CARTESIAN_POINT('',(0.,-105.768300756337,0.));
#165=CARTESIAN_POINT('',(78.5,-182.695118332903,100.));
#166=CARTESIAN_POINT('',(157.,-104.195118332903,0.));
#167=CARTESIAN_POINT('',(155.426817576566,-104.195118332903,0.));
#168=CARTESIAN_POINT('',(0.,-259.62193590947,0.));
#169=CARTESIAN_POINT('',(0.,-261.195118332903,0.));
#170=CARTESIAN_POINT('',(0.,-261.195118332903,0.));
#171=CARTESIAN_POINT('',(1.5731824234336,-261.195118332903,0.));
#172=CARTESIAN_POINT('',(155.426817576567,-261.195118332903,0.));
#173=CARTESIAN_POINT('',(157.,-261.195118332903,0.));
#174=CARTESIAN_POINT('',(157.,-261.195118332903,0.));
#175=CARTESIAN_POINT('',(157.,-259.62193590947,0.));
#176=CARTESIAN_POINT('',(157.,-105.768300756337,0.));
#177=CARTESIAN_POINT('',(157.,-104.195118332903,0.));
#178=CARTESIAN_POINT('',(1.57318242343365,-104.195118332903,0.));
#179=CARTESIAN_POINT('',(0.,-104.195118332903,0.));
#180=CARTESIAN_POINT('',(0.,-104.195118332903,0.));
#181=CARTESIAN_POINT('',(0.,-105.768300756337,0.));
#182=CARTESIAN_POINT('',(0.,-261.195118332903,0.));
#183=CARTESIAN_POINT('',(78.5,-182.695118332903,100.));
#184=CARTESIAN_POINT('',(78.5,-182.695118332903,100.));
#185=CARTESIAN_POINT('',(157.,-261.195118332903,0.));
#186=CARTESIAN_POINT('',(78.5,-182.695118332903,100.));
#187=CARTESIAN_POINT('',(157.,-104.195118332903,0.));
#188=CARTESIAN_POINT('',(0.,-104.195118332903,0.));
#189=CARTESIAN_POINT('',(78.5,-182.695118332903,100.));
#190=CARTESIAN_POINT('',(0.,-259.62193590947,0.));
#191=CARTESIAN_POINT('',(0.,-105.768300756337,0.));
#192=CARTESIAN_POINT('',(155.426817576567,-261.195118332903,0.));
#193=CARTESIAN_POINT('',(1.5731824234336,-261.195118332903,0.));
#194=CARTESIAN_POINT('',(157.,-105.768300756337,0.));
#195=CARTESIAN_POINT('',(157.,-259.62193590947,0.));
#196=CARTESIAN_POINT('',(1.57318242343365,-104.195118332903,0.));
#197=CARTESIAN_POINT('',(155.426817576566,-104.195118332903,0.));
#198=CARTESIAN_POINT('',(0.,0.,0.));
ENDSEC;
END-ISO-10303-21;
