ISO-10303-21;
HEADER;
/* Generated by software containing ST-Developer
 * from STEP Tools, Inc. (www.steptools.com) 
 */

FILE_DESCRIPTION(
/* description */ (''),
/* implementation_level */ '2;1');

FILE_NAME(
/* name */ 'C:/Users/willo/Desktop/cale v11.step',
/* time_stamp */ '2020-03-31T14:47:36+02:00',
/* author */ (''),
/* organization */ (''),
/* preprocessor_version */ 'ST-DEVELOPER v18',
/* originating_system */ 'Autodesk Translation Framework v8.12.0.6',
/* authorisation */ '');

FILE_SCHEMA (('AUTOMOTIVE_DESIGN { 1 0 10303 214 3 1 1 }'));
ENDSEC;

DATA;
#10=MECHANICAL_DESIGN_GEOMETRIC_PRESENTATION_REPRESENTATION('',(#13),#337);
#11=SHAPE_REPRESENTATION_RELATIONSHIP('SRR','None',#344,#12);
#12=ADVANCED_BREP_SHAPE_REPRESENTATION('',(#14),#336);
#13=STYLED_ITEM('',(#353),#14);
#14=MANIFOLD_SOLID_BREP('Body1',#187);
#15=FACE_BOUND('',#47,.T.);
#16=FACE_BOUND('',#48,.T.);
#17=FACE_BOUND('',#49,.T.);
#18=FACE_BOUND('',#50,.T.);
#19=FACE_BOUND('',#54,.T.);
#20=FACE_BOUND('',#59,.T.);
#21=FACE_BOUND('',#60,.T.);
#22=FACE_BOUND('',#61,.T.);
#23=FACE_BOUND('',#62,.T.);
#24=PLANE('',#206);
#25=PLANE('',#216);
#26=PLANE('',#224);
#27=CYLINDRICAL_SURFACE('',#204,50.0000007450581);
#28=CYLINDRICAL_SURFACE('',#214,39.95);
#29=CYLINDRICAL_SURFACE('',#218,1.25);
#30=CYLINDRICAL_SURFACE('',#220,1.25);
#31=CYLINDRICAL_SURFACE('',#222,1.25);
#32=CYLINDRICAL_SURFACE('',#225,20.);
#33=FACE_OUTER_BOUND('',#44,.T.);
#34=FACE_OUTER_BOUND('',#45,.T.);
#35=FACE_OUTER_BOUND('',#46,.T.);
#36=FACE_OUTER_BOUND('',#51,.T.);
#37=FACE_OUTER_BOUND('',#52,.T.);
#38=FACE_OUTER_BOUND('',#53,.T.);
#39=FACE_OUTER_BOUND('',#55,.T.);
#40=FACE_OUTER_BOUND('',#56,.T.);
#41=FACE_OUTER_BOUND('',#57,.T.);
#42=FACE_OUTER_BOUND('',#58,.T.);
#43=FACE_OUTER_BOUND('',#63,.T.);
#44=EDGE_LOOP('',(#130,#131,#132,#133));
#45=EDGE_LOOP('',(#134,#135,#136,#137));
#46=EDGE_LOOP('',(#138));
#47=EDGE_LOOP('',(#139));
#48=EDGE_LOOP('',(#140));
#49=EDGE_LOOP('',(#141));
#50=EDGE_LOOP('',(#142));
#51=EDGE_LOOP('',(#143,#144,#145,#146));
#52=EDGE_LOOP('',(#147,#148,#149,#150));
#53=EDGE_LOOP('',(#151));
#54=EDGE_LOOP('',(#152));
#55=EDGE_LOOP('',(#153,#154,#155,#156));
#56=EDGE_LOOP('',(#157,#158,#159,#160));
#57=EDGE_LOOP('',(#161,#162,#163,#164));
#58=EDGE_LOOP('',(#165));
#59=EDGE_LOOP('',(#166));
#60=EDGE_LOOP('',(#167));
#61=EDGE_LOOP('',(#168));
#62=EDGE_LOOP('',(#169));
#63=EDGE_LOOP('',(#170,#171,#172,#173));
#64=LINE('',#291,#72);
#65=LINE('',#296,#73);
#66=LINE('',#310,#74);
#67=LINE('',#314,#75);
#68=LINE('',#322,#76);
#69=LINE('',#326,#77);
#70=LINE('',#330,#78);
#71=LINE('',#333,#79);
#72=VECTOR('',#232,49.5000007450581);
#73=VECTOR('',#239,50.0000007450581);
#74=VECTOR('',#254,39.45);
#75=VECTOR('',#259,39.95);
#76=VECTOR('',#270,1.25);
#77=VECTOR('',#275,1.25);
#78=VECTOR('',#280,1.25);
#79=VECTOR('',#285,20.);
#80=CIRCLE('',#202,50.0000007450581);
#81=CIRCLE('',#203,49.0000007450581);
#82=CIRCLE('',#205,50.0000007450581);
#83=CIRCLE('',#207,20.);
#84=CIRCLE('',#208,1.25);
#85=CIRCLE('',#209,1.25);
#86=CIRCLE('',#210,1.25);
#87=CIRCLE('',#212,38.95);
#88=CIRCLE('',#213,39.95);
#89=CIRCLE('',#215,39.95);
#90=CIRCLE('',#217,20.);
#91=CIRCLE('',#219,1.25);
#92=CIRCLE('',#221,1.25);
#93=CIRCLE('',#223,1.25);
#94=VERTEX_POINT('',#288);
#95=VERTEX_POINT('',#290);
#96=VERTEX_POINT('',#294);
#97=VERTEX_POINT('',#298);
#98=VERTEX_POINT('',#300);
#99=VERTEX_POINT('',#302);
#100=VERTEX_POINT('',#304);
#101=VERTEX_POINT('',#307);
#102=VERTEX_POINT('',#309);
#103=VERTEX_POINT('',#313);
#104=VERTEX_POINT('',#317);
#105=VERTEX_POINT('',#320);
#106=VERTEX_POINT('',#324);
#107=VERTEX_POINT('',#328);
#108=EDGE_CURVE('',#94,#94,#80,.T.);
#109=EDGE_CURVE('',#94,#95,#64,.T.);
#110=EDGE_CURVE('',#95,#95,#81,.T.);
#111=EDGE_CURVE('',#96,#96,#82,.T.);
#112=EDGE_CURVE('',#96,#94,#65,.T.);
#113=EDGE_CURVE('',#97,#97,#83,.T.);
#114=EDGE_CURVE('',#98,#98,#84,.T.);
#115=EDGE_CURVE('',#99,#99,#85,.T.);
#116=EDGE_CURVE('',#100,#100,#86,.T.);
#117=EDGE_CURVE('',#101,#101,#87,.T.);
#118=EDGE_CURVE('',#101,#102,#66,.T.);
#119=EDGE_CURVE('',#102,#102,#88,.T.);
#120=EDGE_CURVE('',#102,#103,#67,.T.);
#121=EDGE_CURVE('',#103,#103,#89,.T.);
#122=EDGE_CURVE('',#104,#104,#90,.T.);
#123=EDGE_CURVE('',#105,#105,#91,.T.);
#124=EDGE_CURVE('',#105,#100,#68,.T.);
#125=EDGE_CURVE('',#106,#106,#92,.T.);
#126=EDGE_CURVE('',#106,#99,#69,.T.);
#127=EDGE_CURVE('',#107,#107,#93,.T.);
#128=EDGE_CURVE('',#107,#98,#70,.T.);
#129=EDGE_CURVE('',#104,#97,#71,.T.);
#130=ORIENTED_EDGE('',*,*,#108,.T.);
#131=ORIENTED_EDGE('',*,*,#109,.T.);
#132=ORIENTED_EDGE('',*,*,#110,.T.);
#133=ORIENTED_EDGE('',*,*,#109,.F.);
#134=ORIENTED_EDGE('',*,*,#111,.F.);
#135=ORIENTED_EDGE('',*,*,#112,.T.);
#136=ORIENTED_EDGE('',*,*,#108,.F.);
#137=ORIENTED_EDGE('',*,*,#112,.F.);
#138=ORIENTED_EDGE('',*,*,#110,.F.);
#139=ORIENTED_EDGE('',*,*,#113,.F.);
#140=ORIENTED_EDGE('',*,*,#114,.T.);
#141=ORIENTED_EDGE('',*,*,#115,.T.);
#142=ORIENTED_EDGE('',*,*,#116,.T.);
#143=ORIENTED_EDGE('',*,*,#117,.T.);
#144=ORIENTED_EDGE('',*,*,#118,.T.);
#145=ORIENTED_EDGE('',*,*,#119,.T.);
#146=ORIENTED_EDGE('',*,*,#118,.F.);
#147=ORIENTED_EDGE('',*,*,#119,.F.);
#148=ORIENTED_EDGE('',*,*,#120,.T.);
#149=ORIENTED_EDGE('',*,*,#121,.T.);
#150=ORIENTED_EDGE('',*,*,#120,.F.);
#151=ORIENTED_EDGE('',*,*,#117,.F.);
#152=ORIENTED_EDGE('',*,*,#122,.T.);
#153=ORIENTED_EDGE('',*,*,#123,.F.);
#154=ORIENTED_EDGE('',*,*,#124,.T.);
#155=ORIENTED_EDGE('',*,*,#116,.F.);
#156=ORIENTED_EDGE('',*,*,#124,.F.);
#157=ORIENTED_EDGE('',*,*,#125,.F.);
#158=ORIENTED_EDGE('',*,*,#126,.T.);
#159=ORIENTED_EDGE('',*,*,#115,.F.);
#160=ORIENTED_EDGE('',*,*,#126,.F.);
#161=ORIENTED_EDGE('',*,*,#127,.F.);
#162=ORIENTED_EDGE('',*,*,#128,.T.);
#163=ORIENTED_EDGE('',*,*,#114,.F.);
#164=ORIENTED_EDGE('',*,*,#128,.F.);
#165=ORIENTED_EDGE('',*,*,#111,.T.);
#166=ORIENTED_EDGE('',*,*,#123,.T.);
#167=ORIENTED_EDGE('',*,*,#125,.T.);
#168=ORIENTED_EDGE('',*,*,#127,.T.);
#169=ORIENTED_EDGE('',*,*,#121,.F.);
#170=ORIENTED_EDGE('',*,*,#122,.F.);
#171=ORIENTED_EDGE('',*,*,#129,.T.);
#172=ORIENTED_EDGE('',*,*,#113,.T.);
#173=ORIENTED_EDGE('',*,*,#129,.F.);
#174=CONICAL_SURFACE('',#201,49.5000007450581,0.785398163397447);
#175=CONICAL_SURFACE('',#211,39.45,0.785398163397448);
#176=ADVANCED_FACE('',(#33),#174,.T.);
#177=ADVANCED_FACE('',(#34),#27,.T.);
#178=ADVANCED_FACE('',(#35,#15,#16,#17,#18),#24,.F.);
#179=ADVANCED_FACE('',(#36),#175,.T.);
#180=ADVANCED_FACE('',(#37),#28,.T.);
#181=ADVANCED_FACE('',(#38,#19),#25,.T.);
#182=ADVANCED_FACE('',(#39),#29,.F.);
#183=ADVANCED_FACE('',(#40),#30,.F.);
#184=ADVANCED_FACE('',(#41),#31,.F.);
#185=ADVANCED_FACE('',(#42,#20,#21,#22,#23),#26,.T.);
#186=ADVANCED_FACE('',(#43),#32,.F.);
#187=CLOSED_SHELL('',(#176,#177,#178,#179,#180,#181,#182,#183,#184,#185,
#186));
#188=DERIVED_UNIT_ELEMENT(#190,1.);
#189=DERIVED_UNIT_ELEMENT(#339,3.);
#190=(
MASS_UNIT()
NAMED_UNIT(*)
SI_UNIT(.KILO.,.GRAM.)
);
#191=DERIVED_UNIT((#188,#189));
#192=MEASURE_REPRESENTATION_ITEM('density measure',
POSITIVE_RATIO_MEASURE(7850.),#191);
#193=PROPERTY_DEFINITION_REPRESENTATION(#198,#195);
#194=PROPERTY_DEFINITION_REPRESENTATION(#199,#196);
#195=REPRESENTATION('material name',(#197),#336);
#196=REPRESENTATION('density',(#192),#336);
#197=DESCRIPTIVE_REPRESENTATION_ITEM('Steel','Steel');
#198=PROPERTY_DEFINITION('material property','material name',#346);
#199=PROPERTY_DEFINITION('material property','density of part',#346);
#200=AXIS2_PLACEMENT_3D('placement',#286,#226,#227);
#201=AXIS2_PLACEMENT_3D('',#287,#228,#229);
#202=AXIS2_PLACEMENT_3D('',#289,#230,#231);
#203=AXIS2_PLACEMENT_3D('',#292,#233,#234);
#204=AXIS2_PLACEMENT_3D('',#293,#235,#236);
#205=AXIS2_PLACEMENT_3D('',#295,#237,#238);
#206=AXIS2_PLACEMENT_3D('',#297,#240,#241);
#207=AXIS2_PLACEMENT_3D('',#299,#242,#243);
#208=AXIS2_PLACEMENT_3D('',#301,#244,#245);
#209=AXIS2_PLACEMENT_3D('',#303,#246,#247);
#210=AXIS2_PLACEMENT_3D('',#305,#248,#249);
#211=AXIS2_PLACEMENT_3D('',#306,#250,#251);
#212=AXIS2_PLACEMENT_3D('',#308,#252,#253);
#213=AXIS2_PLACEMENT_3D('',#311,#255,#256);
#214=AXIS2_PLACEMENT_3D('',#312,#257,#258);
#215=AXIS2_PLACEMENT_3D('',#315,#260,#261);
#216=AXIS2_PLACEMENT_3D('',#316,#262,#263);
#217=AXIS2_PLACEMENT_3D('',#318,#264,#265);
#218=AXIS2_PLACEMENT_3D('',#319,#266,#267);
#219=AXIS2_PLACEMENT_3D('',#321,#268,#269);
#220=AXIS2_PLACEMENT_3D('',#323,#271,#272);
#221=AXIS2_PLACEMENT_3D('',#325,#273,#274);
#222=AXIS2_PLACEMENT_3D('',#327,#276,#277);
#223=AXIS2_PLACEMENT_3D('',#329,#278,#279);
#224=AXIS2_PLACEMENT_3D('',#331,#281,#282);
#225=AXIS2_PLACEMENT_3D('',#332,#283,#284);
#226=DIRECTION('axis',(0.,0.,1.));
#227=DIRECTION('refdir',(1.,0.,0.));
#228=DIRECTION('center_axis',(0.,0.,1.));
#229=DIRECTION('ref_axis',(1.,0.,0.));
#230=DIRECTION('center_axis',(0.,0.,-1.));
#231=DIRECTION('ref_axis',(1.,0.,0.));
#232=DIRECTION('',(0.707106781186546,8.65956056235492E-17,-0.707106781186549));
#233=DIRECTION('center_axis',(0.,0.,1.));
#234=DIRECTION('ref_axis',(1.,0.,0.));
#235=DIRECTION('center_axis',(0.,0.,1.));
#236=DIRECTION('ref_axis',(1.,0.,0.));
#237=DIRECTION('center_axis',(0.,0.,1.));
#238=DIRECTION('ref_axis',(1.,0.,0.));
#239=DIRECTION('',(0.,0.,-1.));
#240=DIRECTION('center_axis',(0.,0.,1.));
#241=DIRECTION('ref_axis',(1.,0.,0.));
#242=DIRECTION('center_axis',(0.,0.,-1.));
#243=DIRECTION('ref_axis',(1.,0.,0.));
#244=DIRECTION('center_axis',(0.,0.,1.));
#245=DIRECTION('ref_axis',(1.,0.,0.));
#246=DIRECTION('center_axis',(0.,0.,1.));
#247=DIRECTION('ref_axis',(1.,0.,0.));
#248=DIRECTION('center_axis',(0.,0.,1.));
#249=DIRECTION('ref_axis',(1.,0.,0.));
#250=DIRECTION('center_axis',(0.,0.,-1.));
#251=DIRECTION('ref_axis',(1.,0.,0.));
#252=DIRECTION('center_axis',(0.,0.,-1.));
#253=DIRECTION('ref_axis',(1.,0.,0.));
#254=DIRECTION('',(-0.707106781186547,-8.65956056235493E-17,-0.707106781186547));
#255=DIRECTION('center_axis',(0.,0.,1.));
#256=DIRECTION('ref_axis',(1.,0.,0.));
#257=DIRECTION('center_axis',(0.,0.,1.));
#258=DIRECTION('ref_axis',(1.,0.,0.));
#259=DIRECTION('',(0.,0.,-1.));
#260=DIRECTION('center_axis',(0.,0.,1.));
#261=DIRECTION('ref_axis',(1.,0.,0.));
#262=DIRECTION('center_axis',(0.,0.,1.));
#263=DIRECTION('ref_axis',(1.,0.,0.));
#264=DIRECTION('center_axis',(0.,0.,-1.));
#265=DIRECTION('ref_axis',(1.,0.,0.));
#266=DIRECTION('center_axis',(0.,0.,-1.));
#267=DIRECTION('ref_axis',(1.,0.,0.));
#268=DIRECTION('center_axis',(0.,0.,-1.));
#269=DIRECTION('ref_axis',(1.,0.,0.));
#270=DIRECTION('',(0.,0.,-1.));
#271=DIRECTION('center_axis',(0.,0.,-1.));
#272=DIRECTION('ref_axis',(1.,0.,0.));
#273=DIRECTION('center_axis',(0.,0.,-1.));
#274=DIRECTION('ref_axis',(1.,0.,0.));
#275=DIRECTION('',(0.,0.,-1.));
#276=DIRECTION('center_axis',(0.,0.,-1.));
#277=DIRECTION('ref_axis',(1.,0.,0.));
#278=DIRECTION('center_axis',(0.,0.,-1.));
#279=DIRECTION('ref_axis',(1.,0.,0.));
#280=DIRECTION('',(0.,0.,-1.));
#281=DIRECTION('center_axis',(0.,0.,1.));
#282=DIRECTION('ref_axis',(1.,0.,0.));
#283=DIRECTION('center_axis',(0.,0.,1.));
#284=DIRECTION('ref_axis',(1.,0.,0.));
#285=DIRECTION('',(0.,0.,-1.));
#286=CARTESIAN_POINT('',(0.,0.,0.));
#287=CARTESIAN_POINT('Origin',(0.,0.,0.5));
#288=CARTESIAN_POINT('',(-50.0000007450581,6.12323408698006E-15,1.));
#289=CARTESIAN_POINT('Origin',(0.,0.,1.));
#290=CARTESIAN_POINT('',(-49.0000007450581,-6.00076940706533E-15,0.));
#291=CARTESIAN_POINT('',(-49.5000007450581,-6.0620017470227E-15,0.5));
#292=CARTESIAN_POINT('Origin',(0.,0.,0.));
#293=CARTESIAN_POINT('Origin',(0.,0.,0.));
#294=CARTESIAN_POINT('',(-50.0000007450581,-6.12323408698006E-15,10.));
#295=CARTESIAN_POINT('Origin',(0.,0.,10.));
#296=CARTESIAN_POINT('',(-50.0000007450581,-6.12323408698006E-15,0.));
#297=CARTESIAN_POINT('Origin',(0.,0.,0.));
#298=CARTESIAN_POINT('',(-20.,-2.44929359829471E-15,0.));
#299=CARTESIAN_POINT('Origin',(0.,0.,0.));
#300=CARTESIAN_POINT('',(-40.2211431702997,-22.5,0.));
#301=CARTESIAN_POINT('Origin',(-38.9711431702997,-22.5,0.));
#302=CARTESIAN_POINT('',(37.7211431702997,-22.5,0.));
#303=CARTESIAN_POINT('Origin',(38.9711431702997,-22.5,0.));
#304=CARTESIAN_POINT('',(-1.25,45.,0.));
#305=CARTESIAN_POINT('Origin',(0.,45.,0.));
#306=CARTESIAN_POINT('Origin',(0.,0.,19.5));
#307=CARTESIAN_POINT('',(-38.95,4.76999928267894E-15,20.));
#308=CARTESIAN_POINT('Origin',(0.,0.,20.));
#309=CARTESIAN_POINT('',(-39.95,-4.89246396259368E-15,19.));
#310=CARTESIAN_POINT('',(-39.45,-4.83123162263631E-15,19.5));
#311=CARTESIAN_POINT('Origin',(0.,0.,19.));
#312=CARTESIAN_POINT('Origin',(0.,0.,0.));
#313=CARTESIAN_POINT('',(-39.95,-4.89246396259368E-15,10.));
#314=CARTESIAN_POINT('',(-39.95,-4.89246396259368E-15,0.));
#315=CARTESIAN_POINT('Origin',(0.,0.,10.));
#316=CARTESIAN_POINT('Origin',(0.,0.,20.));
#317=CARTESIAN_POINT('',(-20.,-2.44929359829471E-15,20.));
#318=CARTESIAN_POINT('Origin',(0.,0.,20.));
#319=CARTESIAN_POINT('Origin',(0.,45.,10.));
#320=CARTESIAN_POINT('',(-1.25,45.,10.));
#321=CARTESIAN_POINT('Origin',(0.,45.,10.));
#322=CARTESIAN_POINT('',(-1.25,45.,10.));
#323=CARTESIAN_POINT('Origin',(38.9711431702997,-22.5,10.));
#324=CARTESIAN_POINT('',(37.7211431702997,-22.5,10.));
#325=CARTESIAN_POINT('Origin',(38.9711431702997,-22.5,10.));
#326=CARTESIAN_POINT('',(37.7211431702997,-22.5,10.));
#327=CARTESIAN_POINT('Origin',(-38.9711431702997,-22.5,10.));
#328=CARTESIAN_POINT('',(-40.2211431702997,-22.5,10.));
#329=CARTESIAN_POINT('Origin',(-38.9711431702997,-22.5,10.));
#330=CARTESIAN_POINT('',(-40.2211431702997,-22.5,10.));
#331=CARTESIAN_POINT('Origin',(0.,0.,10.));
#332=CARTESIAN_POINT('Origin',(0.,0.,0.));
#333=CARTESIAN_POINT('',(-20.,-2.44929359829471E-15,0.));
#334=UNCERTAINTY_MEASURE_WITH_UNIT(LENGTH_MEASURE(0.01),#338,
'DISTANCE_ACCURACY_VALUE',
'Maximum model space distance between geometric entities at asserted c
onnectivities');
#335=UNCERTAINTY_MEASURE_WITH_UNIT(LENGTH_MEASURE(0.01),#338,
'DISTANCE_ACCURACY_VALUE',
'Maximum model space distance between geometric entities at asserted c
onnectivities');
#336=(
GEOMETRIC_REPRESENTATION_CONTEXT(3)
GLOBAL_UNCERTAINTY_ASSIGNED_CONTEXT((#334))
GLOBAL_UNIT_ASSIGNED_CONTEXT((#338,#340,#341))
REPRESENTATION_CONTEXT('','3D')
);
#337=(
GEOMETRIC_REPRESENTATION_CONTEXT(3)
GLOBAL_UNCERTAINTY_ASSIGNED_CONTEXT((#335))
GLOBAL_UNIT_ASSIGNED_CONTEXT((#338,#340,#341))
REPRESENTATION_CONTEXT('','3D')
);
#338=(
LENGTH_UNIT()
NAMED_UNIT(*)
SI_UNIT(.MILLI.,.METRE.)
);
#339=(
LENGTH_UNIT()
NAMED_UNIT(*)
SI_UNIT($,.METRE.)
);
#340=(
NAMED_UNIT(*)
PLANE_ANGLE_UNIT()
SI_UNIT($,.RADIAN.)
);
#341=(
NAMED_UNIT(*)
SI_UNIT($,.STERADIAN.)
SOLID_ANGLE_UNIT()
);
#342=SHAPE_DEFINITION_REPRESENTATION(#343,#344);
#343=PRODUCT_DEFINITION_SHAPE('',$,#346);
#344=SHAPE_REPRESENTATION('',(#200),#336);
#345=PRODUCT_DEFINITION_CONTEXT('part definition',#350,'design');
#346=PRODUCT_DEFINITION('cale','cale v11',#347,#345);
#347=PRODUCT_DEFINITION_FORMATION('',$,#352);
#348=PRODUCT_RELATED_PRODUCT_CATEGORY('cale v11','cale v11',(#352));
#349=APPLICATION_PROTOCOL_DEFINITION('international standard',
'automotive_design',2009,#350);
#350=APPLICATION_CONTEXT(
'Core Data for Automotive Mechanical Design Process');
#351=PRODUCT_CONTEXT('part definition',#350,'mechanical');
#352=PRODUCT('cale','cale v11',$,(#351));
#353=PRESENTATION_STYLE_ASSIGNMENT((#354));
#354=SURFACE_STYLE_USAGE(.BOTH.,#355);
#355=SURFACE_SIDE_STYLE('',(#356));
#356=SURFACE_STYLE_FILL_AREA(#357);
#357=FILL_AREA_STYLE('Steel - Satin',(#358));
#358=FILL_AREA_STYLE_COLOUR('Steel - Satin',#359);
#359=COLOUR_RGB('Steel - Satin',0.627450980392157,0.627450980392157,0.627450980392157);
ENDSEC;
END-ISO-10303-21;
