ISO-10303-21;
HEADER;
FILE_DESCRIPTION(('CATIA V5 STEP Exchange'),'2;1');

FILE_NAME('Z:\\Fabrication\\Usinages-Plans2019-2020\\BancTestPU\\Manche_2020.stp','2020-03-13T15:33:34+00:00',('none'),('none'),'Version 5-6 Release 2013','CATIA V5 STEP AP203','none');

FILE_SCHEMA(('CONFIG_CONTROL_DESIGN'));

ENDSEC;
DATA;
#5=PRODUCT('Manche_2020','','',(#2)) ;
#1=APPLICATION_CONTEXT('configuration controlled 3D design of mechanical parts and assemblies') ;
#14=PRODUCT_DEFINITION('',' ',#6,#3) ;
#16=SECURITY_CLASSIFICATION(' ',' ',#15) ;
#15=SECURITY_CLASSIFICATION_LEVEL('unclassified') ;
#46=CARTESIAN_POINT(' ',(0.,0.,0.)) ;
#51=CARTESIAN_POINT('Axis2P3D Location',(0.,0.,201.08264909)) ;
#56=CARTESIAN_POINT('Line Origine',(-2.21721234262,1.21126862328,202.541324545)) ;
#60=CARTESIAN_POINT('Vertex',(0.,0.,201.08264909)) ;
#62=CARTESIAN_POINT('Vertex',(-4.43442468523,2.42253724657,204.)) ;
#65=CARTESIAN_POINT('Axis2P3D Location',(0.,0.,204.)) ;
#69=CARTESIAN_POINT('Vertex',(4.43442468523,-2.42253724657,204.)) ;
#72=CARTESIAN_POINT('Line Origine',(2.21721234262,-1.21126862328,202.541324545)) ;
#83=CARTESIAN_POINT('Axis2P3D Location',(0.,-14.,250.)) ;
#88=CARTESIAN_POINT('Axis2P3D Location',(1.11022302463E-015,-1.7763568394E-015,250.)) ;
#92=CARTESIAN_POINT('Vertex',(-5.88156815211,10.7661382798,250.)) ;
#94=CARTESIAN_POINT('Vertex',(5.88156814915,-10.7661382814,250.)) ;
#97=CARTESIAN_POINT('Axis2P3D Location',(-8.881784197E-016,0.,250.)) ;
#106=CARTESIAN_POINT('Axis2P3D Location',(-4.4408920985E-016,1.7763568394E-015,250.)) ;
#110=CARTESIAN_POINT('Vertex',(-4.43442468523,2.42253724657,250.)) ;
#112=CARTESIAN_POINT('Vertex',(4.43442468523,-2.42253724657,250.)) ;
#115=CARTESIAN_POINT('Axis2P3D Location',(2.22044604925E-016,0.,250.)) ;
#125=CARTESIAN_POINT('Axis2P3D Location',(1.43581213917E-014,1.3469942972E-014,271.248711306)) ;
#130=CARTESIAN_POINT('Line Origine',(-6.2967628448,11.5261470739,248.5)) ;
#134=CARTESIAN_POINT('Vertex',(-6.71195754046,12.2861558665,247.)) ;
#137=CARTESIAN_POINT('Axis2P3D Location',(2.20881053462E-029,-8.881784197E-016,247.)) ;
#141=CARTESIAN_POINT('Vertex',(6.71195754046,-12.2861558665,247.)) ;
#144=CARTESIAN_POINT('Line Origine',(6.2967628448,-11.5261470739,248.5)) ;
#156=CARTESIAN_POINT('Axis2P3D Location',(1.43581213917E-014,2.06490036678E-014,271.248711306)) ;
#161=CARTESIAN_POINT('Axis2P3D Location',(-1.57772181044E-029,-8.881784197E-016,247.)) ;
#173=CARTESIAN_POINT('Axis2P3D Location',(0.,0.,109.)) ;
#178=CARTESIAN_POINT('Line Origine',(-3.83540430883,7.02066049512,-16.)) ;
#182=CARTESIAN_POINT('Vertex',(-3.83540430883,7.02066049512,0.)) ;
#184=CARTESIAN_POINT('Vertex',(-3.83540430883,7.02066049512,-30.5)) ;
#187=CARTESIAN_POINT('Axis2P3D Location',(0.,0.,0.)) ;
#191=CARTESIAN_POINT('Vertex',(3.83540430883,-7.02066049512,0.)) ;
#194=CARTESIAN_POINT('Line Origine',(3.83540430883,-7.02066049512,-16.)) ;
#198=CARTESIAN_POINT('Vertex',(3.83540430883,-7.02066049512,-30.5)) ;
#201=CARTESIAN_POINT('Axis2P3D Location',(0.,0.,-30.5)) ;
#213=CARTESIAN_POINT('Axis2P3D Location',(0.,0.,0.)) ;
#218=CARTESIAN_POINT('Axis2P3D Location',(0.,0.,-30.5)) ;
#230=CARTESIAN_POINT('Axis2P3D Location',(2.96059473233E-015,-9.24723260927E-015,-38.5)) ;
#235=CARTESIAN_POINT('Line Origine',(3.47583515488,-6.36247357371,-31.25)) ;
#239=CARTESIAN_POINT('Vertex',(3.11626600093,-5.70428665229,-32.)) ;
#242=CARTESIAN_POINT('Axis2P3D Location',(-8.881784197E-016,-2.15105711021E-015,-32.)) ;
#246=CARTESIAN_POINT('Vertex',(-3.11626600093,5.70428665229,-32.)) ;
#249=CARTESIAN_POINT('Line Origine',(-3.47583515488,6.36247357371,-31.25)) ;
#261=CARTESIAN_POINT('Axis2P3D Location',(-4.29286236188E-015,-5.77315972805E-015,-38.5)) ;
#266=CARTESIAN_POINT('Axis2P3D Location',(-4.4408920985E-016,7.88860905221E-030,-32.)) ;
#278=CARTESIAN_POINT('Axis2P3D Location',(0.,0.,-32.)) ;
#288=CARTESIAN_POINT('Axis2P3D Location',(0.,0.,250.)) ;
#293=CARTESIAN_POINT('Line Origine',(-4.43442468523,2.42253724657,227.155000001)) ;
#298=CARTESIAN_POINT('Axis2P3D Location',(0.,0.,204.)) ;
#303=CARTESIAN_POINT('Line Origine',(4.43442468523,-2.42253724657,227.155000001)) ;
#328=CARTESIAN_POINT('Axis2P3D Location',(0.,-8.,0.)) ;
#333=CARTESIAN_POINT('Axis2P3D Location',(0.,0.,0.)) ;
#337=CARTESIAN_POINT('Vertex',(-14.,5.14351655642E-015,0.)) ;
#339=CARTESIAN_POINT('Vertex',(-7.98435971134,-11.5,0.)) ;
#342=CARTESIAN_POINT('Axis2P3D Location',(0.,0.,0.)) ;
#346=CARTESIAN_POINT('Vertex',(-7.98435971134,11.5,0.)) ;
#349=CARTESIAN_POINT('Line Origine',(0.,11.5,0.)) ;
#353=CARTESIAN_POINT('Vertex',(7.98435971134,11.5,0.)) ;
#356=CARTESIAN_POINT('Axis2P3D Location',(0.,0.,0.)) ;
#360=CARTESIAN_POINT('Vertex',(14.,-3.42901103761E-015,0.)) ;
#363=CARTESIAN_POINT('Axis2P3D Location',(0.,0.,0.)) ;
#367=CARTESIAN_POINT('Vertex',(7.98435971134,-11.5,0.)) ;
#370=CARTESIAN_POINT('Line Origine',(1.7763568394E-015,-11.5,0.)) ;
#388=CARTESIAN_POINT('Axis2P3D Location',(0.,0.,109.)) ;
#393=CARTESIAN_POINT('Line Origine',(7.98435971134,11.5,125.)) ;
#397=CARTESIAN_POINT('Vertex',(7.98435971134,11.5,15.)) ;
#400=CARTESIAN_POINT('Axis2P3D Location',(0.,0.,15.)) ;
#404=CARTESIAN_POINT('Vertex',(-6.71195754046,12.2861558665,15.)) ;
#407=CARTESIAN_POINT('Line Origine',(-6.71195754046,12.2861558665,125.)) ;
#412=CARTESIAN_POINT('Line Origine',(6.71195754046,-12.2861558665,125.)) ;
#416=CARTESIAN_POINT('Vertex',(6.71195754046,-12.2861558665,15.)) ;
#419=CARTESIAN_POINT('Axis2P3D Location',(0.,0.,15.)) ;
#423=CARTESIAN_POINT('Vertex',(7.98435971134,-11.5,15.)) ;
#426=CARTESIAN_POINT('Line Origine',(7.98435971134,-11.5,125.)) ;
#443=CARTESIAN_POINT('Line Origine',(-7.98435971134,-11.5,125.)) ;
#447=CARTESIAN_POINT('Vertex',(-7.98435971134,-11.5,15.)) ;
#450=CARTESIAN_POINT('Axis2P3D Location',(0.,0.,15.)) ;
#455=CARTESIAN_POINT('Axis2P3D Location',(0.,0.,15.)) ;
#459=CARTESIAN_POINT('Vertex',(-7.98435971134,11.5,15.)) ;
#462=CARTESIAN_POINT('Line Origine',(-7.98435971134,11.5,125.)) ;
#479=CARTESIAN_POINT('Axis2P3D Location',(0.,0.,15.)) ;
#484=CARTESIAN_POINT('Line Origine',(7.1054273576E-015,-11.5,15.)) ;
#495=CARTESIAN_POINT('Axis2P3D Location',(-14.,-11.5,0.)) ;
#507=CARTESIAN_POINT('Line Origine',(-8.881784197E-016,11.5,15.)) ;
#518=CARTESIAN_POINT('Axis2P3D Location',(14.,11.5,0.)) ;
#52=DIRECTION('Axis2P3D Direction',(0.,0.,1.)) ;
#53=DIRECTION('Axis2P3D XDirection',(0.87758256189,-0.479425538604,0.)) ;
#57=DIRECTION('Vector Direction',(-0.760008792515,0.415194695654,0.5)) ;
#66=DIRECTION('Axis2P3D Direction',(0.,0.,1.)) ;
#73=DIRECTION('Vector Direction',(0.760008792515,-0.415194695654,0.5)) ;
#84=DIRECTION('Axis2P3D Direction',(0.,0.,1.)) ;
#85=DIRECTION('Axis2P3D XDirection',(1.,0.,0.)) ;
#89=DIRECTION('Axis2P3D Direction',(0.,0.,1.)) ;
#98=DIRECTION('Axis2P3D Direction',(0.,0.,1.)) ;
#107=DIRECTION('Axis2P3D Direction',(0.,0.,1.)) ;
#116=DIRECTION('Axis2P3D Direction',(0.,0.,1.)) ;
#126=DIRECTION('Axis2P3D Direction',(-5.92118946467E-016,-5.92118946467E-016,-1.)) ;
#127=DIRECTION('Axis2P3D XDirection',(-0.0853149308637,0.996354034755,-3.72529029846E-016)) ;
#131=DIRECTION('Vector Direction',(-0.239712769302,0.438791280945,-0.866025403784)) ;
#138=DIRECTION('Axis2P3D Direction',(6.38141532601E-016,5.46422243862E-017,1.)) ;
#145=DIRECTION('Vector Direction',(0.239712769302,-0.438791280945,-0.866025403784)) ;
#157=DIRECTION('Axis2P3D Direction',(-5.92118946467E-016,-8.881784197E-016,-1.)) ;
#158=DIRECTION('Axis2P3D XDirection',(0.479425538604,-0.87758256189,3.72529029846E-016)) ;
#162=DIRECTION('Axis2P3D Direction',(8.29709274051E-016,4.5327224226E-016,1.)) ;
#174=DIRECTION('Axis2P3D Direction',(0.,0.,1.)) ;
#175=DIRECTION('Axis2P3D XDirection',(0.479425538604,-0.87758256189,0.)) ;
#179=DIRECTION('Vector Direction',(0.,0.,1.)) ;
#188=DIRECTION('Axis2P3D Direction',(0.,0.,1.)) ;
#195=DIRECTION('Vector Direction',(0.,0.,1.)) ;
#202=DIRECTION('Axis2P3D Direction',(0.,0.,1.)) ;
#214=DIRECTION('Axis2P3D Direction',(0.,0.,1.)) ;
#219=DIRECTION('Axis2P3D Direction',(0.,0.,1.)) ;
#231=DIRECTION('Axis2P3D Direction',(-5.92118946467E-016,1.09171930755E-015,1.)) ;
#232=DIRECTION('Axis2P3D XDirection',(0.479425538604,-0.87758256189,1.18538011437E-015)) ;
#236=DIRECTION('Vector Direction',(0.339005049421,-0.620544580564,0.707106781187)) ;
#243=DIRECTION('Axis2P3D Direction',(3.30397113266E-018,1.80496765614E-018,1.)) ;
#250=DIRECTION('Vector Direction',(-0.339005049421,0.620544580564,0.707106781187)) ;
#262=DIRECTION('Axis2P3D Direction',(5.92118946467E-016,8.881784197E-016,1.)) ;
#263=DIRECTION('Axis2P3D XDirection',(0.520296023213,0.853985976599,-1.05367121277E-015)) ;
#267=DIRECTION('Axis2P3D Direction',(3.71873121758E-017,-2.26565905873E-017,1.)) ;
#279=DIRECTION('Axis2P3D Direction',(0.,0.,1.)) ;
#280=DIRECTION('Axis2P3D XDirection',(1.,0.,0.)) ;
#289=DIRECTION('Axis2P3D Direction',(0.,-0.,-1.)) ;
#290=DIRECTION('Axis2P3D XDirection',(0.87758256189,-0.479425538604,0.)) ;
#294=DIRECTION('Vector Direction',(0.,0.,-1.)) ;
#299=DIRECTION('Axis2P3D Direction',(0.,-0.,-1.)) ;
#304=DIRECTION('Vector Direction',(0.,0.,-1.)) ;
#329=DIRECTION('Axis2P3D Direction',(0.,0.,1.)) ;
#330=DIRECTION('Axis2P3D XDirection',(1.,0.,0.)) ;
#334=DIRECTION('Axis2P3D Direction',(0.,0.,1.)) ;
#343=DIRECTION('Axis2P3D Direction',(0.,0.,1.)) ;
#350=DIRECTION('Vector Direction',(-1.,0.,0.)) ;
#357=DIRECTION('Axis2P3D Direction',(0.,0.,1.)) ;
#364=DIRECTION('Axis2P3D Direction',(0.,0.,1.)) ;
#371=DIRECTION('Vector Direction',(1.,0.,0.)) ;
#389=DIRECTION('Axis2P3D Direction',(0.,0.,1.)) ;
#390=DIRECTION('Axis2P3D XDirection',(0.479425538604,-0.87758256189,0.)) ;
#394=DIRECTION('Vector Direction',(0.,0.,1.)) ;
#401=DIRECTION('Axis2P3D Direction',(0.,0.,1.)) ;
#408=DIRECTION('Vector Direction',(0.,0.,1.)) ;
#413=DIRECTION('Vector Direction',(0.,0.,1.)) ;
#420=DIRECTION('Axis2P3D Direction',(0.,0.,1.)) ;
#427=DIRECTION('Vector Direction',(0.,0.,1.)) ;
#444=DIRECTION('Vector Direction',(0.,0.,1.)) ;
#451=DIRECTION('Axis2P3D Direction',(0.,0.,1.)) ;
#456=DIRECTION('Axis2P3D Direction',(0.,0.,1.)) ;
#463=DIRECTION('Vector Direction',(0.,0.,1.)) ;
#480=DIRECTION('Axis2P3D Direction',(0.,0.,-1.)) ;
#481=DIRECTION('Axis2P3D XDirection',(1.,0.,0.)) ;
#485=DIRECTION('Vector Direction',(1.,0.,0.)) ;
#496=DIRECTION('Axis2P3D Direction',(0.,-1.,0.)) ;
#497=DIRECTION('Axis2P3D XDirection',(1.,0.,0.)) ;
#508=DIRECTION('Vector Direction',(-1.,0.,0.)) ;
#519=DIRECTION('Axis2P3D Direction',(0.,1.,-0.)) ;
#520=DIRECTION('Axis2P3D XDirection',(-1.,0.,0.)) ;
#47=AXIS2_PLACEMENT_3D(' ',#46,$,$) ;
#54=AXIS2_PLACEMENT_3D('Cone Axis2P3D',#51,#52,#53) ;
#67=AXIS2_PLACEMENT_3D('Circle Axis2P3D',#65,#66,$) ;
#86=AXIS2_PLACEMENT_3D('Plane Axis2P3D',#83,#84,#85) ;
#90=AXIS2_PLACEMENT_3D('Circle Axis2P3D',#88,#89,$) ;
#99=AXIS2_PLACEMENT_3D('Circle Axis2P3D',#97,#98,$) ;
#108=AXIS2_PLACEMENT_3D('Circle Axis2P3D',#106,#107,$) ;
#117=AXIS2_PLACEMENT_3D('Circle Axis2P3D',#115,#116,$) ;
#128=AXIS2_PLACEMENT_3D('Cone Axis2P3D',#125,#126,#127) ;
#139=AXIS2_PLACEMENT_3D('Circle Axis2P3D',#137,#138,$) ;
#159=AXIS2_PLACEMENT_3D('Cone Axis2P3D',#156,#157,#158) ;
#163=AXIS2_PLACEMENT_3D('Circle Axis2P3D',#161,#162,$) ;
#176=AXIS2_PLACEMENT_3D('Cylinder Axis2P3D',#173,#174,#175) ;
#189=AXIS2_PLACEMENT_3D('Circle Axis2P3D',#187,#188,$) ;
#203=AXIS2_PLACEMENT_3D('Circle Axis2P3D',#201,#202,$) ;
#215=AXIS2_PLACEMENT_3D('Circle Axis2P3D',#213,#214,$) ;
#220=AXIS2_PLACEMENT_3D('Circle Axis2P3D',#218,#219,$) ;
#233=AXIS2_PLACEMENT_3D('Cone Axis2P3D',#230,#231,#232) ;
#244=AXIS2_PLACEMENT_3D('Circle Axis2P3D',#242,#243,$) ;
#264=AXIS2_PLACEMENT_3D('Cone Axis2P3D',#261,#262,#263) ;
#268=AXIS2_PLACEMENT_3D('Circle Axis2P3D',#266,#267,$) ;
#281=AXIS2_PLACEMENT_3D('Plane Axis2P3D',#278,#279,#280) ;
#291=AXIS2_PLACEMENT_3D('Cylinder Axis2P3D',#288,#289,#290) ;
#300=AXIS2_PLACEMENT_3D('Circle Axis2P3D',#298,#299,$) ;
#331=AXIS2_PLACEMENT_3D('Plane Axis2P3D',#328,#329,#330) ;
#335=AXIS2_PLACEMENT_3D('Circle Axis2P3D',#333,#334,$) ;
#344=AXIS2_PLACEMENT_3D('Circle Axis2P3D',#342,#343,$) ;
#358=AXIS2_PLACEMENT_3D('Circle Axis2P3D',#356,#357,$) ;
#365=AXIS2_PLACEMENT_3D('Circle Axis2P3D',#363,#364,$) ;
#391=AXIS2_PLACEMENT_3D('Cylinder Axis2P3D',#388,#389,#390) ;
#402=AXIS2_PLACEMENT_3D('Circle Axis2P3D',#400,#401,$) ;
#421=AXIS2_PLACEMENT_3D('Circle Axis2P3D',#419,#420,$) ;
#452=AXIS2_PLACEMENT_3D('Circle Axis2P3D',#450,#451,$) ;
#457=AXIS2_PLACEMENT_3D('Circle Axis2P3D',#455,#456,$) ;
#482=AXIS2_PLACEMENT_3D('Plane Axis2P3D',#479,#480,#481) ;
#498=AXIS2_PLACEMENT_3D('Plane Axis2P3D',#495,#496,#497) ;
#521=AXIS2_PLACEMENT_3D('Plane Axis2P3D',#518,#519,#520) ;
#40=PRODUCT_DEFINITION_SHAPE(' ',' ',#14) ;
#31=APPROVAL_PERSON_ORGANIZATION(#25,#21,#19) ;
#25=PERSON_AND_ORGANIZATION(#22,#23) ;
#22=PERSON(' ',' ',' ',$,$,$) ;
#23=ORGANIZATION(' ',' ',' ') ;
#21=APPROVAL(#20,' ') ;
#20=APPROVAL_STATUS('not_yet_approved') ;
#19=APPROVAL_ROLE('APPROVER') ;
#13=DATE_AND_TIME(#11,#12) ;
#12=LOCAL_TIME(16,33,33.,#10) ;
#10=COORDINATED_UNIVERSAL_TIME_OFFSET(0,0,.AHEAD.) ;
#78=ORIENTED_EDGE('',*,*,#64,.T.) ;
#79=ORIENTED_EDGE('',*,*,#71,.F.) ;
#80=ORIENTED_EDGE('',*,*,#76,.F.) ;
#103=ORIENTED_EDGE('',*,*,#96,.T.) ;
#104=ORIENTED_EDGE('',*,*,#101,.T.) ;
#121=ORIENTED_EDGE('',*,*,#114,.F.) ;
#122=ORIENTED_EDGE('',*,*,#119,.F.) ;
#150=ORIENTED_EDGE('',*,*,#136,.T.) ;
#151=ORIENTED_EDGE('',*,*,#143,.T.) ;
#152=ORIENTED_EDGE('',*,*,#148,.F.) ;
#153=ORIENTED_EDGE('',*,*,#96,.F.) ;
#167=ORIENTED_EDGE('',*,*,#148,.T.) ;
#168=ORIENTED_EDGE('',*,*,#165,.T.) ;
#169=ORIENTED_EDGE('',*,*,#136,.F.) ;
#170=ORIENTED_EDGE('',*,*,#101,.F.) ;
#207=ORIENTED_EDGE('',*,*,#186,.F.) ;
#208=ORIENTED_EDGE('',*,*,#193,.F.) ;
#209=ORIENTED_EDGE('',*,*,#200,.T.) ;
#210=ORIENTED_EDGE('',*,*,#205,.T.) ;
#224=ORIENTED_EDGE('',*,*,#200,.F.) ;
#225=ORIENTED_EDGE('',*,*,#217,.F.) ;
#226=ORIENTED_EDGE('',*,*,#186,.T.) ;
#227=ORIENTED_EDGE('',*,*,#222,.T.) ;
#255=ORIENTED_EDGE('',*,*,#241,.T.) ;
#256=ORIENTED_EDGE('',*,*,#248,.T.) ;
#257=ORIENTED_EDGE('',*,*,#253,.F.) ;
#258=ORIENTED_EDGE('',*,*,#205,.F.) ;
#272=ORIENTED_EDGE('',*,*,#253,.T.) ;
#273=ORIENTED_EDGE('',*,*,#270,.T.) ;
#274=ORIENTED_EDGE('',*,*,#241,.F.) ;
#275=ORIENTED_EDGE('',*,*,#222,.F.) ;
#284=ORIENTED_EDGE('',*,*,#248,.F.) ;
#285=ORIENTED_EDGE('',*,*,#270,.F.) ;
#309=ORIENTED_EDGE('',*,*,#119,.T.) ;
#310=ORIENTED_EDGE('',*,*,#297,.F.) ;
#311=ORIENTED_EDGE('',*,*,#302,.T.) ;
#312=ORIENTED_EDGE('',*,*,#307,.T.) ;
#316=ORIENTED_EDGE('',*,*,#114,.T.) ;
#317=ORIENTED_EDGE('',*,*,#307,.F.) ;
#318=ORIENTED_EDGE('',*,*,#71,.T.) ;
#319=ORIENTED_EDGE('',*,*,#297,.T.) ;
#323=ORIENTED_EDGE('',*,*,#76,.T.) ;
#324=ORIENTED_EDGE('',*,*,#302,.F.) ;
#325=ORIENTED_EDGE('',*,*,#64,.F.) ;
#376=ORIENTED_EDGE('',*,*,#341,.F.) ;
#377=ORIENTED_EDGE('',*,*,#348,.F.) ;
#378=ORIENTED_EDGE('',*,*,#355,.T.) ;
#379=ORIENTED_EDGE('',*,*,#362,.F.) ;
#380=ORIENTED_EDGE('',*,*,#369,.F.) ;
#381=ORIENTED_EDGE('',*,*,#374,.T.) ;
#384=ORIENTED_EDGE('',*,*,#217,.T.) ;
#385=ORIENTED_EDGE('',*,*,#193,.T.) ;
#432=ORIENTED_EDGE('',*,*,#369,.T.) ;
#433=ORIENTED_EDGE('',*,*,#362,.T.) ;
#434=ORIENTED_EDGE('',*,*,#399,.T.) ;
#435=ORIENTED_EDGE('',*,*,#406,.F.) ;
#436=ORIENTED_EDGE('',*,*,#411,.F.) ;
#437=ORIENTED_EDGE('',*,*,#165,.F.) ;
#438=ORIENTED_EDGE('',*,*,#418,.T.) ;
#439=ORIENTED_EDGE('',*,*,#425,.F.) ;
#440=ORIENTED_EDGE('',*,*,#430,.F.) ;
#468=ORIENTED_EDGE('',*,*,#348,.T.) ;
#469=ORIENTED_EDGE('',*,*,#341,.T.) ;
#470=ORIENTED_EDGE('',*,*,#449,.T.) ;
#471=ORIENTED_EDGE('',*,*,#454,.F.) ;
#472=ORIENTED_EDGE('',*,*,#418,.F.) ;
#473=ORIENTED_EDGE('',*,*,#143,.F.) ;
#474=ORIENTED_EDGE('',*,*,#411,.T.) ;
#475=ORIENTED_EDGE('',*,*,#461,.F.) ;
#476=ORIENTED_EDGE('',*,*,#466,.F.) ;
#490=ORIENTED_EDGE('',*,*,#425,.T.) ;
#491=ORIENTED_EDGE('',*,*,#454,.T.) ;
#492=ORIENTED_EDGE('',*,*,#488,.F.) ;
#501=ORIENTED_EDGE('',*,*,#449,.F.) ;
#502=ORIENTED_EDGE('',*,*,#374,.F.) ;
#503=ORIENTED_EDGE('',*,*,#430,.T.) ;
#504=ORIENTED_EDGE('',*,*,#488,.T.) ;
#513=ORIENTED_EDGE('',*,*,#511,.F.) ;
#514=ORIENTED_EDGE('',*,*,#461,.T.) ;
#515=ORIENTED_EDGE('',*,*,#406,.T.) ;
#524=ORIENTED_EDGE('',*,*,#399,.F.) ;
#525=ORIENTED_EDGE('',*,*,#355,.F.) ;
#526=ORIENTED_EDGE('',*,*,#466,.T.) ;
#527=ORIENTED_EDGE('',*,*,#511,.T.) ;
#123=FACE_BOUND('',#120,.T.) ;
#386=FACE_BOUND('',#383,.T.) ;
#50=CLOSED_SHELL('Closed Shell',(#82,#124,#155,#172,#212,#229,#260,#277,#287,#314,#321,#327,#387,#442,#478,#494,#506,#517,#529)) ;
#58=VECTOR('Line Direction',#57,1.) ;
#74=VECTOR('Line Direction',#73,1.) ;
#132=VECTOR('Line Direction',#131,1.) ;
#146=VECTOR('Line Direction',#145,1.) ;
#180=VECTOR('Line Direction',#179,1.) ;
#196=VECTOR('Line Direction',#195,1.) ;
#237=VECTOR('Line Direction',#236,1.) ;
#251=VECTOR('Line Direction',#250,1.) ;
#295=VECTOR('Line Direction',#294,1.) ;
#305=VECTOR('Line Direction',#304,1.) ;
#351=VECTOR('Line Direction',#350,1.) ;
#372=VECTOR('Line Direction',#371,1.) ;
#395=VECTOR('Line Direction',#394,1.) ;
#409=VECTOR('Line Direction',#408,1.) ;
#414=VECTOR('Line Direction',#413,1.) ;
#428=VECTOR('Line Direction',#427,1.) ;
#445=VECTOR('Line Direction',#444,1.) ;
#464=VECTOR('Line Direction',#463,1.) ;
#486=VECTOR('Line Direction',#485,1.) ;
#509=VECTOR('Line Direction',#508,1.) ;
#531=ADVANCED_BREP_SHAPE_REPRESENTATION('NONE',(#530),#45) ;
#48=SHAPE_REPRESENTATION(' ',(#47),#45) ;
#82=ADVANCED_FACE('Corps principal',(#81),#55,.F.) ;
#124=ADVANCED_FACE('Corps principal',(#105,#123),#87,.T.) ;
#155=ADVANCED_FACE('Corps principal',(#154),#129,.T.) ;
#172=ADVANCED_FACE('Corps principal',(#171),#160,.T.) ;
#212=ADVANCED_FACE('Corps principal',(#211),#177,.T.) ;
#229=ADVANCED_FACE('Corps principal',(#228),#177,.T.) ;
#260=ADVANCED_FACE('Corps principal',(#259),#234,.T.) ;
#277=ADVANCED_FACE('Corps principal',(#276),#265,.T.) ;
#287=ADVANCED_FACE('Corps principal',(#286),#282,.F.) ;
#314=ADVANCED_FACE('Corps principal',(#313),#292,.F.) ;
#321=ADVANCED_FACE('Corps principal',(#320),#292,.F.) ;
#327=ADVANCED_FACE('Corps principal',(#326),#55,.F.) ;
#387=ADVANCED_FACE('Corps principal',(#382,#386),#332,.F.) ;
#442=ADVANCED_FACE('Corps principal',(#441),#392,.T.) ;
#478=ADVANCED_FACE('Corps principal',(#477),#392,.T.) ;
#494=ADVANCED_FACE('Corps principal',(#493),#483,.T.) ;
#506=ADVANCED_FACE('Corps principal',(#505),#499,.T.) ;
#517=ADVANCED_FACE('Corps principal',(#516),#483,.T.) ;
#529=ADVANCED_FACE('Corps principal',(#528),#522,.T.) ;
#4=APPLICATION_PROTOCOL_DEFINITION('international standard','config_control_design',1994,#1) ;
#32=APPROVAL_DATE_TIME(#13,#21) ;
#530=MANIFOLD_SOLID_BREP('Corps principal',#50) ;
#11=CALENDAR_DATE(2020,13,3) ;
#30=CC_DESIGN_APPROVAL(#21,(#16,#6,#14)) ;
#18=CC_DESIGN_DATE_AND_TIME_ASSIGNMENT(#13,#17,(#16)) ;
#29=CC_DESIGN_DATE_AND_TIME_ASSIGNMENT(#13,#28,(#14)) ;
#17=DATE_TIME_ROLE('classification_date') ;
#28=DATE_TIME_ROLE('creation_date') ;
#27=CC_DESIGN_PERSON_AND_ORGANIZATION_ASSIGNMENT(#25,#26,(#16)) ;
#33=CC_DESIGN_PERSON_AND_ORGANIZATION_ASSIGNMENT(#25,#34,(#6)) ;
#35=CC_DESIGN_PERSON_AND_ORGANIZATION_ASSIGNMENT(#25,#36,(#6,#14)) ;
#37=CC_DESIGN_PERSON_AND_ORGANIZATION_ASSIGNMENT(#25,#38,(#5)) ;
#26=PERSON_AND_ORGANIZATION_ROLE('classification_officer') ;
#34=PERSON_AND_ORGANIZATION_ROLE('design_supplier') ;
#36=PERSON_AND_ORGANIZATION_ROLE('creator') ;
#38=PERSON_AND_ORGANIZATION_ROLE('design_owner') ;
#39=CC_DESIGN_SECURITY_CLASSIFICATION(#16,(#6)) ;
#68=CIRCLE('generated circle',#67,5.053) ;
#91=CIRCLE('generated circle',#90,12.2679491924) ;
#100=CIRCLE('generated circle',#99,12.2679491924) ;
#109=CIRCLE('generated circle',#108,5.053) ;
#118=CIRCLE('generated circle',#117,5.053) ;
#140=CIRCLE('generated circle',#139,14.) ;
#164=CIRCLE('generated circle',#163,14.) ;
#190=CIRCLE('generated circle',#189,8.) ;
#204=CIRCLE('generated circle',#203,8.) ;
#216=CIRCLE('generated circle',#215,8.) ;
#221=CIRCLE('generated circle',#220,8.) ;
#245=CIRCLE('generated circle',#244,6.5) ;
#269=CIRCLE('generated circle',#268,6.5) ;
#301=CIRCLE('generated circle',#300,5.053) ;
#336=CIRCLE('generated circle',#335,14.) ;
#345=CIRCLE('generated circle',#344,14.) ;
#359=CIRCLE('generated circle',#358,14.) ;
#366=CIRCLE('generated circle',#365,14.) ;
#403=CIRCLE('generated circle',#402,14.) ;
#422=CIRCLE('generated circle',#421,14.) ;
#453=CIRCLE('generated circle',#452,14.) ;
#458=CIRCLE('generated circle',#457,14.) ;
#55=CONICAL_SURFACE('Cone',#54,0.,1.0471975512) ;
#129=CONICAL_SURFACE('Cone',#128,0.,0.523598775598) ;
#160=CONICAL_SURFACE('Cone',#159,0.,0.523598775598) ;
#234=CONICAL_SURFACE('Cone',#233,0.,0.785398163397) ;
#265=CONICAL_SURFACE('Cone',#264,0.,0.785398163397) ;
#532=SHAPE_REPRESENTATION_RELATIONSHIP(' ',' ',#48,#531) ;
#177=CYLINDRICAL_SURFACE('generated cylinder',#176,8.) ;
#292=CYLINDRICAL_SURFACE('generated cylinder',#291,5.053) ;
#392=CYLINDRICAL_SURFACE('generated cylinder',#391,14.) ;
#3=DESIGN_CONTEXT(' ',#1,'design') ;
#64=EDGE_CURVE('',#61,#63,#59,.T.) ;
#71=EDGE_CURVE('',#70,#63,#68,.F.) ;
#76=EDGE_CURVE('',#61,#70,#75,.T.) ;
#96=EDGE_CURVE('',#93,#95,#91,.T.) ;
#101=EDGE_CURVE('',#95,#93,#100,.T.) ;
#114=EDGE_CURVE('',#111,#113,#109,.T.) ;
#119=EDGE_CURVE('',#113,#111,#118,.T.) ;
#136=EDGE_CURVE('',#93,#135,#133,.T.) ;
#143=EDGE_CURVE('',#135,#142,#140,.T.) ;
#148=EDGE_CURVE('',#95,#142,#147,.T.) ;
#165=EDGE_CURVE('',#142,#135,#164,.T.) ;
#186=EDGE_CURVE('',#183,#185,#181,.F.) ;
#193=EDGE_CURVE('',#192,#183,#190,.T.) ;
#200=EDGE_CURVE('',#192,#199,#197,.F.) ;
#205=EDGE_CURVE('',#199,#185,#204,.T.) ;
#217=EDGE_CURVE('',#183,#192,#216,.T.) ;
#222=EDGE_CURVE('',#185,#199,#221,.T.) ;
#241=EDGE_CURVE('',#199,#240,#238,.F.) ;
#248=EDGE_CURVE('',#240,#247,#245,.T.) ;
#253=EDGE_CURVE('',#185,#247,#252,.F.) ;
#270=EDGE_CURVE('',#247,#240,#269,.T.) ;
#297=EDGE_CURVE('',#63,#111,#296,.F.) ;
#302=EDGE_CURVE('',#63,#70,#301,.T.) ;
#307=EDGE_CURVE('',#70,#113,#306,.F.) ;
#341=EDGE_CURVE('',#338,#340,#336,.T.) ;
#348=EDGE_CURVE('',#347,#338,#345,.T.) ;
#355=EDGE_CURVE('',#347,#354,#352,.F.) ;
#362=EDGE_CURVE('',#361,#354,#359,.T.) ;
#369=EDGE_CURVE('',#368,#361,#366,.T.) ;
#374=EDGE_CURVE('',#368,#340,#373,.F.) ;
#399=EDGE_CURVE('',#354,#398,#396,.T.) ;
#406=EDGE_CURVE('',#405,#398,#403,.F.) ;
#411=EDGE_CURVE('',#135,#405,#410,.F.) ;
#418=EDGE_CURVE('',#142,#417,#415,.F.) ;
#425=EDGE_CURVE('',#424,#417,#422,.F.) ;
#430=EDGE_CURVE('',#368,#424,#429,.T.) ;
#449=EDGE_CURVE('',#340,#448,#446,.T.) ;
#454=EDGE_CURVE('',#417,#448,#453,.F.) ;
#461=EDGE_CURVE('',#460,#405,#458,.F.) ;
#466=EDGE_CURVE('',#347,#460,#465,.T.) ;
#488=EDGE_CURVE('',#424,#448,#487,.F.) ;
#511=EDGE_CURVE('',#460,#398,#510,.F.) ;
#77=EDGE_LOOP('',(#78,#79,#80)) ;
#102=EDGE_LOOP('',(#103,#104)) ;
#120=EDGE_LOOP('',(#121,#122)) ;
#149=EDGE_LOOP('',(#150,#151,#152,#153)) ;
#166=EDGE_LOOP('',(#167,#168,#169,#170)) ;
#206=EDGE_LOOP('',(#207,#208,#209,#210)) ;
#223=EDGE_LOOP('',(#224,#225,#226,#227)) ;
#254=EDGE_LOOP('',(#255,#256,#257,#258)) ;
#271=EDGE_LOOP('',(#272,#273,#274,#275)) ;
#283=EDGE_LOOP('',(#284,#285)) ;
#308=EDGE_LOOP('',(#309,#310,#311,#312)) ;
#315=EDGE_LOOP('',(#316,#317,#318,#319)) ;
#322=EDGE_LOOP('',(#323,#324,#325)) ;
#375=EDGE_LOOP('',(#376,#377,#378,#379,#380,#381)) ;
#383=EDGE_LOOP('',(#384,#385)) ;
#431=EDGE_LOOP('',(#432,#433,#434,#435,#436,#437,#438,#439,#440)) ;
#467=EDGE_LOOP('',(#468,#469,#470,#471,#472,#473,#474,#475,#476)) ;
#489=EDGE_LOOP('',(#490,#491,#492)) ;
#500=EDGE_LOOP('',(#501,#502,#503,#504)) ;
#512=EDGE_LOOP('',(#513,#514,#515)) ;
#523=EDGE_LOOP('',(#524,#525,#526,#527)) ;
#81=FACE_OUTER_BOUND('',#77,.T.) ;
#105=FACE_OUTER_BOUND('',#102,.T.) ;
#154=FACE_OUTER_BOUND('',#149,.T.) ;
#171=FACE_OUTER_BOUND('',#166,.T.) ;
#211=FACE_OUTER_BOUND('',#206,.T.) ;
#228=FACE_OUTER_BOUND('',#223,.T.) ;
#259=FACE_OUTER_BOUND('',#254,.T.) ;
#276=FACE_OUTER_BOUND('',#271,.T.) ;
#286=FACE_OUTER_BOUND('',#283,.T.) ;
#313=FACE_OUTER_BOUND('',#308,.T.) ;
#320=FACE_OUTER_BOUND('',#315,.T.) ;
#326=FACE_OUTER_BOUND('',#322,.T.) ;
#382=FACE_OUTER_BOUND('',#375,.T.) ;
#441=FACE_OUTER_BOUND('',#431,.T.) ;
#477=FACE_OUTER_BOUND('',#467,.T.) ;
#493=FACE_OUTER_BOUND('',#489,.T.) ;
#505=FACE_OUTER_BOUND('',#500,.T.) ;
#516=FACE_OUTER_BOUND('',#512,.T.) ;
#528=FACE_OUTER_BOUND('',#523,.T.) ;
#44=UNCERTAINTY_MEASURE_WITH_UNIT(LENGTH_MEASURE(0.005),#41,'distance_accuracy_value','CONFUSED CURVE UNCERTAINTY') ;
#59=LINE('Line',#56,#58) ;
#75=LINE('Line',#72,#74) ;
#133=LINE('Line',#130,#132) ;
#147=LINE('Line',#144,#146) ;
#181=LINE('Line',#178,#180) ;
#197=LINE('Line',#194,#196) ;
#238=LINE('Line',#235,#237) ;
#252=LINE('Line',#249,#251) ;
#296=LINE('Line',#293,#295) ;
#306=LINE('Line',#303,#305) ;
#352=LINE('Line',#349,#351) ;
#373=LINE('Line',#370,#372) ;
#396=LINE('Line',#393,#395) ;
#410=LINE('Line',#407,#409) ;
#415=LINE('Line',#412,#414) ;
#429=LINE('Line',#426,#428) ;
#446=LINE('Line',#443,#445) ;
#465=LINE('Line',#462,#464) ;
#487=LINE('Line',#484,#486) ;
#510=LINE('Line',#507,#509) ;
#2=MECHANICAL_CONTEXT(' ',#1,'mechanical') ;
#24=PERSONAL_ADDRESS(' ',' ',' ',' ',' ',' ',' ',' ',' ',' ',' ',' ',(#22),' ') ;
#87=PLANE('',#86) ;
#282=PLANE('',#281) ;
#332=PLANE('',#331) ;
#483=PLANE('',#482) ;
#499=PLANE('',#498) ;
#522=PLANE('',#521) ;
#7=PRODUCT_CATEGORY('part',$) ;
#9=PRODUCT_CATEGORY_RELATIONSHIP(' ',' ',#7,#8) ;
#6=PRODUCT_DEFINITION_FORMATION_WITH_SPECIFIED_SOURCE('',' ',#5,.NOT_KNOWN.) ;
#8=PRODUCT_RELATED_PRODUCT_CATEGORY('detail',$,(#5)) ;
#49=SHAPE_DEFINITION_REPRESENTATION(#40,#48) ;
#61=VERTEX_POINT('',#60) ;
#63=VERTEX_POINT('',#62) ;
#70=VERTEX_POINT('',#69) ;
#93=VERTEX_POINT('',#92) ;
#95=VERTEX_POINT('',#94) ;
#111=VERTEX_POINT('',#110) ;
#113=VERTEX_POINT('',#112) ;
#135=VERTEX_POINT('',#134) ;
#142=VERTEX_POINT('',#141) ;
#183=VERTEX_POINT('',#182) ;
#185=VERTEX_POINT('',#184) ;
#192=VERTEX_POINT('',#191) ;
#199=VERTEX_POINT('',#198) ;
#240=VERTEX_POINT('',#239) ;
#247=VERTEX_POINT('',#246) ;
#338=VERTEX_POINT('',#337) ;
#340=VERTEX_POINT('',#339) ;
#347=VERTEX_POINT('',#346) ;
#354=VERTEX_POINT('',#353) ;
#361=VERTEX_POINT('',#360) ;
#368=VERTEX_POINT('',#367) ;
#398=VERTEX_POINT('',#397) ;
#405=VERTEX_POINT('',#404) ;
#417=VERTEX_POINT('',#416) ;
#424=VERTEX_POINT('',#423) ;
#448=VERTEX_POINT('',#447) ;
#460=VERTEX_POINT('',#459) ;
#41=(LENGTH_UNIT()NAMED_UNIT(*)SI_UNIT(.MILLI.,.METRE.)) ;
#42=(NAMED_UNIT(*)PLANE_ANGLE_UNIT()SI_UNIT($,.RADIAN.)) ;
#43=(NAMED_UNIT(*)SI_UNIT($,.STERADIAN.)SOLID_ANGLE_UNIT()) ;
#45=(GEOMETRIC_REPRESENTATION_CONTEXT(3)GLOBAL_UNCERTAINTY_ASSIGNED_CONTEXT((#44))GLOBAL_UNIT_ASSIGNED_CONTEXT((#41,#42,#43))REPRESENTATION_CONTEXT(' ',' ')) ;
ENDSEC;
END-ISO-10303-21;
