ISO-10303-21;
HEADER;
FILE_DESCRIPTION (( 'STEP AP203' ),
    '1' );
FILE_NAME ('ENTRETOISE Ø22 YZF.STEP',
    '2020-03-13T07:34:23',
    ( '' ),
    ( '' ),
    'SwSTEP 2.0',
    'SolidWorks 2019',
    '' );
FILE_SCHEMA (( 'CONFIG_CONTROL_DESIGN' ));
ENDSEC;

DATA;
#1 = DATE_AND_TIME ( #248, #200 ) ;
#2 = PERSON_AND_ORGANIZATION ( #273, #107 ) ;
#3 = DIRECTION ( 'NONE',  ( 0.0000000000000000000, 0.0000000000000000000, 1.000000000000000000 ) ) ;
#4 = APPLICATION_PROTOCOL_DEFINITION ( 'international standard', 'config_control_design', 1994, #285 ) ;
#5 = AXIS2_PLACEMENT_3D ( 'NONE', #301, #7, #299 ) ;
#6 = LOCAL_TIME ( 8, 34, 23.00000000000000000, #191 ) ;
#7 = DIRECTION ( 'NONE',  ( 0.0000000000000000000, 0.0000000000000000000, 1.000000000000000000 ) ) ;
#8 = ORIENTED_EDGE ( 'NONE', *, *, #204, .T. ) ;
#9 = APPROVAL ( #143, 'UNSPECIFIED' ) ;
#10 = CARTESIAN_POINT ( 'NONE',  ( -13.50000000000000000, 0.0000000000000000000, 0.5000000000000143219 ) ) ;
#11 = DATE_AND_TIME ( #253, #162 ) ;
#12 = CARTESIAN_POINT ( 'NONE',  ( 0.0000000000000000000, 0.0000000000000000000, 70.00000000000000000 ) ) ;
#13 = ORIENTED_EDGE ( 'NONE', *, *, #141, .T. ) ;
#14 = EDGE_CURVE ( 'NONE', #151, #101, #302, .T. ) ;
#15 = CIRCLE ( 'NONE', #212, 11.09999999999999964 ) ;
#16 = CC_DESIGN_APPROVAL ( #9, ( #37 ) ) ;
#17 = DIRECTION ( 'NONE',  ( -0.0000000000000000000, -0.0000000000000000000, -1.000000000000000000 ) ) ;
#18 = PRODUCT_RELATED_PRODUCT_CATEGORY ( 'detail', '', ( #139 ) ) ;
#19 = EDGE_CURVE ( 'NONE', #264, #103, #268, .T. ) ;
#20 = FACE_OUTER_BOUND ( 'NONE', #79, .T. ) ;
#21 = FACE_OUTER_BOUND ( 'NONE', #237, .T. ) ;
#22 = VERTEX_POINT ( 'NONE', #26 ) ;
#23 = CARTESIAN_POINT ( 'NONE',  ( 0.0000000000000000000, 0.0000000000000000000, 0.5000000000000143219 ) ) ;
#24 = ORIENTED_EDGE ( 'NONE', *, *, #63, .F. ) ;
#25 = DIRECTION ( 'NONE',  ( 0.0000000000000000000, 0.0000000000000000000, 1.000000000000000000 ) ) ;
#26 = CARTESIAN_POINT ( 'NONE',  ( 13.00000000000000355, 1.622657008870243277E-15, 70.00000000000000000 ) ) ;
#27 = CIRCLE ( 'NONE', #121, 12.99999999999998934 ) ;
#28 = COORDINATED_UNIVERSAL_TIME_OFFSET ( 1, 0, .AHEAD. ) ;
#29 = CARTESIAN_POINT ( 'NONE',  ( 0.0000000000000000000, 0.0000000000000000000, 0.0000000000000000000 ) ) ;
#30 = CALENDAR_DATE ( 2020, 13, 3 ) ;
#31 = LINE ( 'NONE', #249, #317 ) ;
#32 = COORDINATED_UNIVERSAL_TIME_OFFSET ( 1, 0, .AHEAD. ) ;
#33 = DIRECTION ( 'NONE',  ( 1.000000000000000000, 0.0000000000000000000, -0.0000000000000000000 ) ) ;
#34 = VECTOR ( 'NONE', #202, 1000.000000000000000 ) ;
#35 = VERTEX_POINT ( 'NONE', #297 ) ;
#36 = CARTESIAN_POINT ( 'NONE',  ( -13.50000000000000000, 0.0000000000000000000, 70.00000000000000000 ) ) ;
#37 = PRODUCT_DEFINITION ( 'UNKNOWN', '', #277, #316 ) ;
#38 = EDGE_CURVE ( 'NONE', #131, #264, #213, .T. ) ;
#39 = CARTESIAN_POINT ( 'NONE',  ( -13.50000000000000000, 0.0000000000000000000, 69.49999999999998579 ) ) ;
#40 = DIRECTION ( 'NONE',  ( 0.0000000000000000000, 0.0000000000000000000, 1.000000000000000000 ) ) ;
#41 = EDGE_LOOP ( 'NONE', ( #227, #311, #43, #254 ) ) ;
#42 = CARTESIAN_POINT ( 'NONE',  ( 0.0000000000000000000, 0.0000000000000000000, 70.00000000000000000 ) ) ;
#43 = ORIENTED_EDGE ( 'NONE', *, *, #110, .F. ) ;
#44 = CARTESIAN_POINT ( 'NONE',  ( 13.50000000000000000, 1.653273178848926867E-15, 70.00000000000000000 ) ) ;
#45 = CIRCLE ( 'NONE', #245, 13.50000000000000000 ) ;
#46 = DIRECTION ( 'NONE',  ( 1.000000000000000000, 0.0000000000000000000, 0.0000000000000000000 ) ) ;
#47 = SECURITY_CLASSIFICATION ( '', '', #280 ) ;
#48 = ORIENTED_EDGE ( 'NONE', *, *, #292, .F. ) ;
#49 = CARTESIAN_POINT ( 'NONE',  ( 0.0000000000000000000, 0.0000000000000000000, 0.5000000000000143219 ) ) ;
#50 = APPLICATION_PROTOCOL_DEFINITION ( 'international standard', 'config_control_design', 1994, #65 ) ;
#51 = CC_DESIGN_PERSON_AND_ORGANIZATION_ASSIGNMENT ( #274, #177, ( #277 ) ) ;
#52 = DIRECTION ( 'NONE',  ( -0.0000000000000000000, -0.0000000000000000000, -1.000000000000000000 ) ) ;
#53 = EDGE_CURVE ( 'NONE', #101, #151, #153, .T. ) ;
#54 = AXIS2_PLACEMENT_3D ( 'NONE', #322, #188, #296 ) ;
#55 = DIRECTION ( 'NONE',  ( 1.000000000000000000, 0.0000000000000000000, 0.0000000000000000000 ) ) ;
#56 = DATE_AND_TIME ( #171, #306 ) ;
#57 = APPROVAL_DATE_TIME ( #198, #309 ) ;
#58 = CARTESIAN_POINT ( 'NONE',  ( 12.99999999999998934, 0.0000000000000000000, 0.0000000000000000000 ) ) ;
#59 = VERTEX_POINT ( 'NONE', #133 ) ;
#60 = DATE_TIME_ROLE ( 'creation_date' ) ;
#61 = DIRECTION ( 'NONE',  ( 0.0000000000000000000, 0.0000000000000000000, 1.000000000000000000 ) ) ;
#62 = ORIENTED_EDGE ( 'NONE', *, *, #224, .T. ) ;
#63 = EDGE_CURVE ( 'NONE', #118, #59, #15, .T. ) ;
#64 = ORIENTED_EDGE ( 'NONE', *, *, #53, .F. ) ;
#65 = APPLICATION_CONTEXT ( 'configuration controlled 3d designs of mechanical parts and assemblies' ) ;
#66 = CC_DESIGN_PERSON_AND_ORGANIZATION_ASSIGNMENT ( #2, #111, ( #37 ) ) ;
#67 = EDGE_CURVE ( 'NONE', #167, #92, #164, .T. ) ;
#68 = DIRECTION ( 'NONE',  ( 1.000000000000000000, 0.0000000000000000000, 0.0000000000000000000 ) ) ;
#69 = CIRCLE ( 'NONE', #99, 11.09999999999999964 ) ;
#70 = CARTESIAN_POINT ( 'NONE',  ( 0.0000000000000000000, 0.0000000000000000000, 70.00000000000000000 ) ) ;
#71 = ORIENTED_EDGE ( 'NONE', *, *, #75, .F. ) ;
#72 = DIRECTION ( 'NONE',  ( -1.000000000000000000, 0.0000000000000000000, 0.0000000000000000000 ) ) ;
#73 = ORIENTED_EDGE ( 'NONE', *, *, #67, .T. ) ;
#74 = DIRECTION ( 'NONE',  ( -0.0000000000000000000, -0.0000000000000000000, -1.000000000000000000 ) ) ;
#75 = EDGE_CURVE ( 'NONE', #151, #118, #308, .T. ) ;
#76 = CARTESIAN_POINT ( 'NONE',  ( 0.0000000000000000000, 0.0000000000000000000, 70.00000000000000000 ) ) ;
#77 = AXIS2_PLACEMENT_3D ( 'NONE', #263, #130, #231 ) ;
#78 = APPROVAL_PERSON_ORGANIZATION ( #250, #298, #119 ) ;
#79 = EDGE_LOOP ( 'NONE', ( #89, #225, #339, #340 ) ) ;
#80 = FACE_OUTER_BOUND ( 'NONE', #290, .T. ) ;
#81 = CC_DESIGN_PERSON_AND_ORGANIZATION_ASSIGNMENT ( #335, #330, ( #47 ) ) ;
#82 = ADVANCED_FACE ( 'NONE', ( #123, #87 ), #174, .F. ) ;
#83 = PERSON_AND_ORGANIZATION_ROLE ( 'design_owner' ) ;
#84 = PLANE ( 'NONE',  #5 ) ;
#85 = VECTOR ( 'NONE', #259, 1000.000000000000000 ) ;
#86 = CYLINDRICAL_SURFACE ( 'NONE', #93, 13.50000000000000000 ) ;
#87 = FACE_BOUND ( 'NONE', #286, .T. ) ;
#88 = AXIS2_PLACEMENT_3D ( 'NONE', #49, #267, #163 ) ;
#89 = ORIENTED_EDGE ( 'NONE', *, *, #122, .F. ) ;
#90 = CYLINDRICAL_SURFACE ( 'NONE', #149, 11.09999999999999964 ) ;
#91 = PERSON_AND_ORGANIZATION ( #273, #107 ) ;
#92 = VERTEX_POINT ( 'NONE', #58 ) ;
#93 = AXIS2_PLACEMENT_3D ( 'NONE', #112, #52, #328 ) ;
#94 = CC_DESIGN_APPROVAL ( #309, ( #47 ) ) ;
#95 = ORIENTED_EDGE ( 'NONE', *, *, #122, .T. ) ;
#96 = DIRECTION ( 'NONE',  ( -1.000000000000000000, 0.0000000000000000000, 0.0000000000000000000 ) ) ;
#97 = ORIENTED_EDGE ( 'NONE', *, *, #175, .T. ) ;
#98 = DIRECTION ( 'NONE',  ( 1.000000000000000000, 0.0000000000000000000, 0.0000000000000000000 ) ) ;
#99 = AXIS2_PLACEMENT_3D ( 'NONE', #278, #331, #146 ) ;
#100 = CARTESIAN_POINT ( 'NONE',  ( 0.0000000000000000000, 0.0000000000000000000, 70.00000000000000000 ) ) ;
#101 = VERTEX_POINT ( 'NONE', #148 ) ;
#102 = CARTESIAN_POINT ( 'NONE',  ( 0.0000000000000000000, 0.0000000000000000000, 0.5000000000000143219 ) ) ;
#103 = VERTEX_POINT ( 'NONE', #10 ) ;
#104 = DIRECTION ( 'NONE',  ( 1.000000000000000000, 0.0000000000000000000, 0.0000000000000000000 ) ) ;
#105 = ORIENTED_EDGE ( 'NONE', *, *, #67, .F. ) ;
#106 = CIRCLE ( 'NONE', #256, 13.00000000000000355 ) ;
#107 = ORGANIZATION ( 'UNSPECIFIED', 'UNSPECIFIED', '' ) ;
#108 = DIRECTION ( 'NONE',  ( 1.000000000000000000, 0.0000000000000000000, 0.0000000000000000000 ) ) ;
#109 = ADVANCED_FACE ( 'NONE', ( #305 ), #233, .T. ) ;
#110 = EDGE_CURVE ( 'NONE', #59, #118, #69, .T. ) ;
#111 = PERSON_AND_ORGANIZATION_ROLE ( 'creator' ) ;
#112 = CARTESIAN_POINT ( 'NONE',  ( 0.0000000000000000000, 0.0000000000000000000, 70.00000000000000000 ) ) ;
#113 = VECTOR ( 'NONE', #161, 1000.000000000000114 ) ;
#114 = APPROVAL_ROLE ( '' ) ;
#115 = CARTESIAN_POINT ( 'NONE',  ( 0.0000000000000000000, 0.0000000000000000000, 69.49999999999998579 ) ) ;
#116 = APPROVAL_STATUS ( 'not_yet_approved' ) ;
#117 = CARTESIAN_POINT ( 'NONE',  ( 11.09999999999999964, 1.359357947053562156E-15, 70.00000000000000000 ) ) ;
#118 = VERTEX_POINT ( 'NONE', #196 ) ;
#119 = APPROVAL_ROLE ( '' ) ;
#120 = CARTESIAN_POINT ( 'NONE',  ( 0.0000000000000000000, 0.0000000000000000000, 0.0000000000000000000 ) ) ;
#121 = AXIS2_PLACEMENT_3D ( 'NONE', #230, #229, #98 ) ;
#122 = EDGE_CURVE ( 'NONE', #22, #131, #31, .T. ) ;
#123 = FACE_OUTER_BOUND ( 'NONE', #255, .T. ) ;
#124 = AXIS2_PLACEMENT_3D ( 'NONE', #210, #74, #208 ) ;
#125 = CC_DESIGN_SECURITY_CLASSIFICATION ( #47, ( #277 ) ) ;
#126 = DIRECTION ( 'NONE',  ( -1.000000000000000000, 0.0000000000000000000, 0.0000000000000000000 ) ) ;
#127 = DIRECTION ( 'NONE',  ( 0.0000000000000000000, 0.0000000000000000000, -1.000000000000000000 ) ) ;
#128 = CYLINDRICAL_SURFACE ( 'NONE', #124, 13.50000000000000000 ) ;
#129 = ORIENTED_EDGE ( 'NONE', *, *, #270, .T. ) ;
#130 = DIRECTION ( 'NONE',  ( 0.0000000000000000000, 0.0000000000000000000, -1.000000000000000000 ) ) ;
#131 = VERTEX_POINT ( 'NONE', #337 ) ;
#132 = DIRECTION ( 'NONE',  ( 0.0000000000000000000, 0.0000000000000000000, 1.000000000000000000 ) ) ;
#133 = CARTESIAN_POINT ( 'NONE',  ( -11.09999999999999964, 0.0000000000000000000, 0.0000000000000000000 ) ) ;
#134 = AXIS2_PLACEMENT_3D ( 'NONE', #211, #25, #190 ) ;
#135 = ADVANCED_FACE ( 'NONE', ( #251 ), #90, .F. ) ;
#136 = VECTOR ( 'NONE', #341, 1000.000000000000114 ) ;
#137 = DIRECTION ( 'NONE',  ( 1.000000000000000000, 0.0000000000000000000, 0.0000000000000000000 ) ) ;
#138 = CALENDAR_DATE ( 2020, 13, 3 ) ;
#139 = PRODUCT ( 'ENTRETOISE Ø22 YZF', 'ENTRETOISE Ø22 YZF', '', ( #239 ) ) ;
#140 = DATE_TIME_ROLE ( 'classification_date' ) ;
#141 = EDGE_CURVE ( 'NONE', #131, #201, #271, .T. ) ;
#142 = AXIS2_PLACEMENT_3D ( 'NONE', #23, #187, #234 ) ;
#143 = APPROVAL_STATUS ( 'not_yet_approved' ) ;
#144 = APPROVAL_PERSON_ORGANIZATION ( #240, #9, #114 ) ;
#145 = ORIENTED_EDGE ( 'NONE', *, *, #292, .T. ) ;
#146 = DIRECTION ( 'NONE',  ( 1.000000000000000000, 0.0000000000000000000, 0.0000000000000000000 ) ) ;
#147 = CC_DESIGN_PERSON_AND_ORGANIZATION_ASSIGNMENT ( #244, #83, ( #139 ) ) ;
#148 = CARTESIAN_POINT ( 'NONE',  ( -11.09999999999999964, 0.0000000000000000000, 70.00000000000000000 ) ) ;
#149 = AXIS2_PLACEMENT_3D ( 'NONE', #12, #342, #96 ) ;
#150 = APPROVAL_STATUS ( 'not_yet_approved' ) ;
#151 = VERTEX_POINT ( 'NONE', #315 ) ;
#152 = ORIENTED_EDGE ( 'NONE', *, *, #183, .F. ) ;
#153 = CIRCLE ( 'NONE', #332, 11.09999999999999964 ) ;
#154 = CARTESIAN_POINT ( 'NONE',  ( -13.50000000000000000, 1.653273178848926867E-15, 0.5000000000000143219 ) ) ;
#155 = LINE ( 'NONE', #313, #85 ) ;
#156 = CARTESIAN_POINT ( 'NONE',  ( 13.50000000000000000, 1.653273178848926867E-15, 0.5000000000000143219 ) ) ;
#157 = ADVANCED_FACE ( 'NONE', ( #20 ), #193, .T. ) ;
#158 = ORIENTED_EDGE ( 'NONE', *, *, #224, .F. ) ;
#159 = DIRECTION ( 'NONE',  ( 1.000000000000000000, 0.0000000000000000000, 0.0000000000000000000 ) ) ;
#160 = EDGE_LOOP ( 'NONE', ( #220, #13, #62, #129 ) ) ;
#161 = DIRECTION ( 'NONE',  ( 0.7071067811865451302, 0.0000000000000000000, 0.7071067811865500152 ) ) ;
#162 = LOCAL_TIME ( 8, 34, 23.00000000000000000, #307 ) ;
#163 = DIRECTION ( 'NONE',  ( 1.000000000000000000, 0.0000000000000000000, 0.0000000000000000000 ) ) ;
#164 = CIRCLE ( 'NONE', #54, 12.99999999999998934 ) ;
#165 = AXIS2_PLACEMENT_3D ( 'NONE', #29, #269, #137 ) ;
#166 = CONICAL_SURFACE ( 'NONE', #275, 13.50000000000000000, 0.7853981633974447263 ) ;
#167 = VERTEX_POINT ( 'NONE', #182 ) ;
#168 =( NAMED_UNIT ( * ) SI_UNIT ( $, .STERADIAN. ) SOLID_ANGLE_UNIT ( ) );
#169 = EDGE_CURVE ( 'NONE', #92, #167, #27, .T. ) ;
#170 = FACE_BOUND ( 'NONE', #320, .T. ) ;
#171 = CALENDAR_DATE ( 2020, 13, 3 ) ;
#172 = AXIS2_PLACEMENT_3D ( 'NONE', #100, #319, #72 ) ;
#173 = APPROVAL_DATE_TIME ( #11, #298 ) ;
#174 = PLANE ( 'NONE',  #223 ) ;
#175 = EDGE_CURVE ( 'NONE', #167, #103, #289, .T. ) ;
#176 = ORIENTED_EDGE ( 'NONE', *, *, #257, .T. ) ;
#177 = PERSON_AND_ORGANIZATION_ROLE ( 'creator' ) ;
#178 = CARTESIAN_POINT ( 'NONE',  ( 0.0000000000000000000, 0.0000000000000000000, 0.5000000000000143219 ) ) ;
#179 = EDGE_LOOP ( 'NONE', ( #300, #95, #209, #152 ) ) ;
#180 = CARTESIAN_POINT ( 'NONE',  ( -13.00000000000000355, 0.0000000000000000000, 70.00000000000000000 ) ) ;
#181 = AXIS2_PLACEMENT_3D ( 'NONE', #70, #207, #126 ) ;
#182 = CARTESIAN_POINT ( 'NONE',  ( -12.99999999999998934, 1.622657008870242291E-15, 0.0000000000000000000 ) ) ;
#183 = EDGE_CURVE ( 'NONE', #35, #201, #260, .T. ) ;
#184 = ORIENTED_EDGE ( 'NONE', *, *, #169, .T. ) ;
#185 = LINE ( 'NONE', #291, #113 ) ;
#186 = ORIENTED_EDGE ( 'NONE', *, *, #19, .T. ) ;
#187 = DIRECTION ( 'NONE',  ( -0.0000000000000000000, -0.0000000000000000000, 1.000000000000000000 ) ) ;
#188 = DIRECTION ( 'NONE',  ( -0.0000000000000000000, -0.0000000000000000000, -1.000000000000000000 ) ) ;
#189 = CC_DESIGN_APPROVAL ( #298, ( #277 ) ) ;
#190 = DIRECTION ( 'NONE',  ( 1.000000000000000000, 0.0000000000000000000, 0.0000000000000000000 ) ) ;
#191 = COORDINATED_UNIVERSAL_TIME_OFFSET ( 1, 0, .AHEAD. ) ;
#192 = ORIENTED_EDGE ( 'NONE', *, *, #270, .F. ) ;
#193 = CONICAL_SURFACE ( 'NONE', #181, 13.00000000000000355, 0.7853981633974309595 ) ;
#194 =( NAMED_UNIT ( * ) PLANE_ANGLE_UNIT ( ) SI_UNIT ( $, .RADIAN. ) );
#195 =( LENGTH_UNIT ( ) NAMED_UNIT ( * ) SI_UNIT ( .MILLI., .METRE. ) );
#196 = CARTESIAN_POINT ( 'NONE',  ( 11.09999999999999964, 1.359357947053562156E-15, 0.0000000000000000000 ) ) ;
#197 = DIRECTION ( 'NONE',  ( -0.0000000000000000000, -0.0000000000000000000, 1.000000000000000000 ) ) ;
#198 = DATE_AND_TIME ( #30, #258 ) ;
#199 = ORIENTED_EDGE ( 'NONE', *, *, #110, .T. ) ;
#200 = LOCAL_TIME ( 8, 34, 23.00000000000000000, #28 ) ;
#201 = VERTEX_POINT ( 'NONE', #39 ) ;
#202 = DIRECTION ( 'NONE',  ( -0.7071067811865352493, 0.0000000000000000000, -0.7071067811865597852 ) ) ;
#203 = CC_DESIGN_DATE_AND_TIME_ASSIGNMENT ( #243, #60, ( #37 ) ) ;
#204 = EDGE_CURVE ( 'NONE', #101, #59, #155, .T. ) ;
#205 = CARTESIAN_POINT ( 'NONE',  ( 0.0000000000000000000, 0.0000000000000000000, 69.49999999999998579 ) ) ;
#206 = EDGE_LOOP ( 'NONE', ( #262, #293, #186, #158 ) ) ;
#207 = DIRECTION ( 'NONE',  ( 0.0000000000000000000, 0.0000000000000000000, -1.000000000000000000 ) ) ;
#208 = DIRECTION ( 'NONE',  ( -1.000000000000000000, 0.0000000000000000000, 0.0000000000000000000 ) ) ;
#209 = ORIENTED_EDGE ( 'NONE', *, *, #338, .F. ) ;
#210 = CARTESIAN_POINT ( 'NONE',  ( 0.0000000000000000000, 0.0000000000000000000, 70.00000000000000000 ) ) ;
#211 = CARTESIAN_POINT ( 'NONE',  ( 0.0000000000000000000, 0.0000000000000000000, 70.00000000000000000 ) ) ;
#212 = AXIS2_PLACEMENT_3D ( 'NONE', #349, #132, #104 ) ;
#213 = LINE ( 'NONE', #44, #314 ) ;
#214 = CARTESIAN_POINT ( 'NONE',  ( 0.0000000000000000000, 0.0000000000000000000, 70.00000000000000000 ) ) ;
#215 = MANIFOLD_SOLID_BREP ( 'Chanfrein1', #238 ) ;
#216 = ORIENTED_EDGE ( 'NONE', *, *, #169, .F. ) ;
#217 = PERSON_AND_ORGANIZATION ( #273, #107 ) ;
#218 = PRODUCT_DEFINITION_SHAPE ( 'NONE', 'NONE',  #37 ) ;
#219 = DIRECTION ( 'NONE',  ( -0.0000000000000000000, -0.0000000000000000000, -1.000000000000000000 ) ) ;
#220 = ORIENTED_EDGE ( 'NONE', *, *, #38, .F. ) ;
#221 = PERSON_AND_ORGANIZATION_ROLE ( 'design_supplier' ) ;
#222 = DIRECTION ( 'NONE',  ( 0.7071067811865352493, 8.659560562354782482E-17, -0.7071067811865597852 ) ) ;
#223 = AXIS2_PLACEMENT_3D ( 'NONE', #120, #61, #33 ) ;
#224 = EDGE_CURVE ( 'NONE', #201, #103, #288, .T. ) ;
#225 = ORIENTED_EDGE ( 'NONE', *, *, #310, .F. ) ;
#226 =( GEOMETRIC_REPRESENTATION_CONTEXT ( 3 ) GLOBAL_UNCERTAINTY_ASSIGNED_CONTEXT ( ( #287 ) ) GLOBAL_UNIT_ASSIGNED_CONTEXT ( ( #195, #194, #168 ) ) REPRESENTATION_CONTEXT ( 'NONE', 'WORKASPACE' ) );
#227 = ORIENTED_EDGE ( 'NONE', *, *, #53, .T. ) ;
#228 = CC_DESIGN_PERSON_AND_ORGANIZATION_ASSIGNMENT ( #217, #221, ( #277 ) ) ;
#229 = DIRECTION ( 'NONE',  ( -0.0000000000000000000, -0.0000000000000000000, -1.000000000000000000 ) ) ;
#230 = CARTESIAN_POINT ( 'NONE',  ( 0.0000000000000000000, 0.0000000000000000000, 0.0000000000000000000 ) ) ;
#231 = DIRECTION ( 'NONE',  ( -1.000000000000000000, 0.0000000000000000000, 0.0000000000000000000 ) ) ;
#232 = ORIENTED_EDGE ( 'NONE', *, *, #175, .F. ) ;
#233 = CONICAL_SURFACE ( 'NONE', #284, 13.50000000000000000, 0.7853981633974447263 ) ;
#234 = DIRECTION ( 'NONE',  ( 1.000000000000000000, 0.0000000000000000000, 0.0000000000000000000 ) ) ;
#235 = ORIENTED_EDGE ( 'NONE', *, *, #14, .F. ) ;
#236 = DIRECTION ( 'NONE',  ( 1.000000000000000000, 0.0000000000000000000, 0.0000000000000000000 ) ) ;
#237 = EDGE_LOOP ( 'NONE', ( #232, #216, #145, #192 ) ) ;
#238 = CLOSED_SHELL ( 'NONE', ( #266, #109, #283, #336, #329, #82, #282, #135, #242, #157 ) ) ;
#239 = MECHANICAL_CONTEXT ( 'NONE', #65, 'mechanical' ) ;
#240 = PERSON_AND_ORGANIZATION ( #273, #107 ) ;
#241 = CC_DESIGN_DATE_AND_TIME_ASSIGNMENT ( #56, #140, ( #47 ) ) ;
#242 = ADVANCED_FACE ( 'NONE', ( #21 ), #166, .T. ) ;
#243 = DATE_AND_TIME ( #138, #6 ) ;
#244 = PERSON_AND_ORGANIZATION ( #273, #107 ) ;
#245 = AXIS2_PLACEMENT_3D ( 'NONE', #115, #327, #108 ) ;
#246 = SHAPE_DEFINITION_REPRESENTATION ( #218, #326 ) ;
#247 = APPROVAL_PERSON_ORGANIZATION ( #91, #309, #304 ) ;
#248 = CALENDAR_DATE ( 2020, 13, 3 ) ;
#249 = CARTESIAN_POINT ( 'NONE',  ( 13.00000000000000355, 1.592040838891559490E-15, 70.00000000000000000 ) ) ;
#250 = PERSON_AND_ORGANIZATION ( #273, #107 ) ;
#251 = FACE_OUTER_BOUND ( 'NONE', #333, .T. ) ;
#252 = VECTOR ( 'NONE', #219, 1000.000000000000000 ) ;
#253 = CALENDAR_DATE ( 2020, 13, 3 ) ;
#254 = ORIENTED_EDGE ( 'NONE', *, *, #204, .F. ) ;
#255 = EDGE_LOOP ( 'NONE', ( #184, #73 ) ) ;
#256 = AXIS2_PLACEMENT_3D ( 'NONE', #214, #3, #55 ) ;
#257 = EDGE_CURVE ( 'NONE', #22, #35, #312, .T. ) ;
#258 = LOCAL_TIME ( 8, 34, 23.00000000000000000, #276 ) ;
#259 = DIRECTION ( 'NONE',  ( -0.0000000000000000000, -0.0000000000000000000, -1.000000000000000000 ) ) ;
#260 = LINE ( 'NONE', #180, #34 ) ;
#261 = FACE_OUTER_BOUND ( 'NONE', #179, .T. ) ;
#262 = ORIENTED_EDGE ( 'NONE', *, *, #338, .T. ) ;
#263 = CARTESIAN_POINT ( 'NONE',  ( 0.0000000000000000000, 0.0000000000000000000, 70.00000000000000000 ) ) ;
#264 = VERTEX_POINT ( 'NONE', #156 ) ;
#265 = DIRECTION ( 'NONE',  ( -0.0000000000000000000, -0.0000000000000000000, -1.000000000000000000 ) ) ;
#266 = ADVANCED_FACE ( 'NONE', ( #261 ), #294, .T. ) ;
#267 = DIRECTION ( 'NONE',  ( -0.0000000000000000000, -0.0000000000000000000, 1.000000000000000000 ) ) ;
#268 = CIRCLE ( 'NONE', #88, 13.50000000000000000 ) ;
#269 = DIRECTION ( 'NONE',  ( 0.0000000000000000000, 0.0000000000000000000, 1.000000000000000000 ) ) ;
#270 = EDGE_CURVE ( 'NONE', #103, #264, #303, .T. ) ;
#271 = CIRCLE ( 'NONE', #344, 13.50000000000000000 ) ;
#272 = FACE_OUTER_BOUND ( 'NONE', #206, .T. ) ;
#273 = PERSON ( 'UNSPECIFIED', 'UNSPECIFIED', 'UNSPECIFIED', ('UNSPECIFIED'), ('UNSPECIFIED'), ('UNSPECIFIED') ) ;
#274 = PERSON_AND_ORGANIZATION ( #273, #107 ) ;
#275 = AXIS2_PLACEMENT_3D ( 'NONE', #102, #321, #46 ) ;
#276 = COORDINATED_UNIVERSAL_TIME_OFFSET ( 1, 0, .AHEAD. ) ;
#277 = PRODUCT_DEFINITION_FORMATION_WITH_SPECIFIED_SOURCE ( 'ANY', '', #139, .NOT_KNOWN. ) ;
#278 = CARTESIAN_POINT ( 'NONE',  ( 0.0000000000000000000, 0.0000000000000000000, 0.0000000000000000000 ) ) ;
#279 = ORIENTED_EDGE ( 'NONE', *, *, #14, .T. ) ;
#280 = SECURITY_CLASSIFICATION_LEVEL ( 'unclassified' ) ;
#281 = DIRECTION ( 'NONE',  ( 1.000000000000000000, 0.0000000000000000000, 0.0000000000000000000 ) ) ;
#282 = ADVANCED_FACE ( 'NONE', ( #346 ), #128, .T. ) ;
#283 = ADVANCED_FACE ( 'NONE', ( #343 ), #295, .F. ) ;
#284 = AXIS2_PLACEMENT_3D ( 'NONE', #178, #197, #281 ) ;
#285 = APPLICATION_CONTEXT ( 'configuration controlled 3d designs of mechanical parts and assemblies' ) ;
#286 = EDGE_LOOP ( 'NONE', ( #199, #345 ) ) ;
#287 = UNCERTAINTY_MEASURE_WITH_UNIT (LENGTH_MEASURE( 1.000000000000000082E-05 ), #195, 'distance_accuracy_value', 'NONE');
#288 = LINE ( 'NONE', #36, #334 ) ;
#289 = LINE ( 'NONE', #154, #136 ) ;
#290 = EDGE_LOOP ( 'NONE', ( #324, #176 ) ) ;
#291 = CARTESIAN_POINT ( 'NONE',  ( 13.50000000000000000, 0.0000000000000000000, 0.5000000000000143219 ) ) ;
#292 = EDGE_CURVE ( 'NONE', #92, #264, #185, .T. ) ;
#293 = ORIENTED_EDGE ( 'NONE', *, *, #38, .T. ) ;
#294 = CONICAL_SURFACE ( 'NONE', #77, 13.00000000000000355, 0.7853981633974309595 ) ;
#295 = CYLINDRICAL_SURFACE ( 'NONE', #172, 11.09999999999999964 ) ;
#296 = DIRECTION ( 'NONE',  ( 1.000000000000000000, 0.0000000000000000000, 0.0000000000000000000 ) ) ;
#297 = CARTESIAN_POINT ( 'NONE',  ( -13.00000000000000355, 0.0000000000000000000, 70.00000000000000000 ) ) ;
#298 = APPROVAL ( #150, 'UNSPECIFIED' ) ;
#299 = DIRECTION ( 'NONE',  ( 1.000000000000000000, 0.0000000000000000000, -0.0000000000000000000 ) ) ;
#300 = ORIENTED_EDGE ( 'NONE', *, *, #257, .F. ) ;
#301 = CARTESIAN_POINT ( 'NONE',  ( 0.0000000000000000000, 0.0000000000000000000, 70.00000000000000000 ) ) ;
#302 = CIRCLE ( 'NONE', #134, 11.09999999999999964 ) ;
#303 = CIRCLE ( 'NONE', #142, 13.50000000000000000 ) ;
#304 = APPROVAL_ROLE ( '' ) ;
#305 = FACE_OUTER_BOUND ( 'NONE', #347, .T. ) ;
#306 = LOCAL_TIME ( 8, 34, 23.00000000000000000, #32 ) ;
#307 = COORDINATED_UNIVERSAL_TIME_OFFSET ( 1, 0, .AHEAD. ) ;
#308 = LINE ( 'NONE', #117, #252 ) ;
#309 = APPROVAL ( #116, 'UNSPECIFIED' ) ;
#310 = EDGE_CURVE ( 'NONE', #35, #22, #106, .T. ) ;
#311 = ORIENTED_EDGE ( 'NONE', *, *, #75, .T. ) ;
#312 = CIRCLE ( 'NONE', #323, 13.00000000000000355 ) ;
#313 = CARTESIAN_POINT ( 'NONE',  ( -11.09999999999999964, 0.0000000000000000000, 70.00000000000000000 ) ) ;
#314 = VECTOR ( 'NONE', #265, 1000.000000000000000 ) ;
#315 = CARTESIAN_POINT ( 'NONE',  ( 11.09999999999999964, 1.359357947053562156E-15, 70.00000000000000000 ) ) ;
#316 = DESIGN_CONTEXT ( 'detailed design', #285, 'design' ) ;
#317 = VECTOR ( 'NONE', #222, 1000.000000000000000 ) ;
#318 = ORIENTED_EDGE ( 'NONE', *, *, #19, .F. ) ;
#319 = DIRECTION ( 'NONE',  ( -0.0000000000000000000, -0.0000000000000000000, -1.000000000000000000 ) ) ;
#320 = EDGE_LOOP ( 'NONE', ( #64, #235 ) ) ;
#321 = DIRECTION ( 'NONE',  ( -0.0000000000000000000, -0.0000000000000000000, 1.000000000000000000 ) ) ;
#322 = CARTESIAN_POINT ( 'NONE',  ( 0.0000000000000000000, 0.0000000000000000000, 0.0000000000000000000 ) ) ;
#323 = AXIS2_PLACEMENT_3D ( 'NONE', #42, #40, #159 ) ;
#324 = ORIENTED_EDGE ( 'NONE', *, *, #310, .T. ) ;
#325 = APPROVAL_DATE_TIME ( #1, #9 ) ;
#326 = ADVANCED_BREP_SHAPE_REPRESENTATION ( 'ENTRETOISE Ï22 YZF', ( #215, #165 ), #226 ) ;
#327 = DIRECTION ( 'NONE',  ( 0.0000000000000000000, 0.0000000000000000000, -1.000000000000000000 ) ) ;
#328 = DIRECTION ( 'NONE',  ( -1.000000000000000000, 0.0000000000000000000, 0.0000000000000000000 ) ) ;
#329 = ADVANCED_FACE ( 'NONE', ( #80, #170 ), #84, .T. ) ;
#330 = PERSON_AND_ORGANIZATION_ROLE ( 'classification_officer' ) ;
#331 = DIRECTION ( 'NONE',  ( 0.0000000000000000000, 0.0000000000000000000, 1.000000000000000000 ) ) ;
#332 = AXIS2_PLACEMENT_3D ( 'NONE', #76, #348, #236 ) ;
#333 = EDGE_LOOP ( 'NONE', ( #71, #279, #8, #24 ) ) ;
#334 = VECTOR ( 'NONE', #17, 1000.000000000000000 ) ;
#335 = PERSON_AND_ORGANIZATION ( #273, #107 ) ;
#336 = ADVANCED_FACE ( 'NONE', ( #272 ), #86, .T. ) ;
#337 = CARTESIAN_POINT ( 'NONE',  ( 13.50000000000000000, 1.653273178848926867E-15, 69.49999999999998579 ) ) ;
#338 = EDGE_CURVE ( 'NONE', #201, #131, #45, .T. ) ;
#339 = ORIENTED_EDGE ( 'NONE', *, *, #183, .T. ) ;
#340 = ORIENTED_EDGE ( 'NONE', *, *, #141, .F. ) ;
#341 = DIRECTION ( 'NONE',  ( -0.7071067811865451302, 8.659560562354903276E-17, 0.7071067811865500152 ) ) ;
#342 = DIRECTION ( 'NONE',  ( -0.0000000000000000000, -0.0000000000000000000, -1.000000000000000000 ) ) ;
#343 = FACE_OUTER_BOUND ( 'NONE', #41, .T. ) ;
#344 = AXIS2_PLACEMENT_3D ( 'NONE', #205, #127, #68 ) ;
#345 = ORIENTED_EDGE ( 'NONE', *, *, #63, .T. ) ;
#346 = FACE_OUTER_BOUND ( 'NONE', #160, .T. ) ;
#347 = EDGE_LOOP ( 'NONE', ( #105, #97, #318, #48 ) ) ;
#348 = DIRECTION ( 'NONE',  ( 0.0000000000000000000, 0.0000000000000000000, 1.000000000000000000 ) ) ;
#349 = CARTESIAN_POINT ( 'NONE',  ( 0.0000000000000000000, 0.0000000000000000000, 0.0000000000000000000 ) ) ;
ENDSEC;
END-ISO-10303-21;
