ISO-10303-21;
HEADER;
/* Generated by software containing ST-Developer
 * from STEP Tools, Inc. (www.steptools.com) 
 */

FILE_DESCRIPTION(
/* description */ (''),
/* implementation_level */ '2;1');

FILE_NAME(
/* name */ 
'/Users/lucashaag/Documents/Projets/Pelle/Plantor/Plant+/Plant+2/Entre
toise_nue.step',
/* time_stamp */ '2020-03-11T19:19:12+01:00',
/* author */ (''),
/* organization */ (''),
/* preprocessor_version */ 'ST-DEVELOPER v18',
/* originating_system */ 'Autodesk Translation Framework v8.12.0.6',
/* authorisation */ '');

FILE_SCHEMA (('AUTOMOTIVE_DESIGN { 1 0 10303 214 3 1 1 }'));
ENDSEC;

DATA;
#10=MECHANICAL_DESIGN_GEOMETRIC_PRESENTATION_REPRESENTATION('',(#13),#175);
#11=SHAPE_REPRESENTATION_RELATIONSHIP('SRR','None',#182,#12);
#12=ADVANCED_BREP_SHAPE_REPRESENTATION('',(#14),#174);
#13=STYLED_ITEM('',(#191),#14);
#14=MANIFOLD_SOLID_BREP('Body1',#93);
#15=CYLINDRICAL_SURFACE('',#112,38.15);
#16=CYLINDRICAL_SURFACE('',#116,55.5);
#17=FACE_BOUND('',#29,.T.);
#18=FACE_BOUND('',#34,.T.);
#19=PLANE('',#110);
#20=PLANE('',#118);
#21=FACE_OUTER_BOUND('',#27,.T.);
#22=FACE_OUTER_BOUND('',#28,.T.);
#23=FACE_OUTER_BOUND('',#30,.T.);
#24=FACE_OUTER_BOUND('',#31,.T.);
#25=FACE_OUTER_BOUND('',#32,.T.);
#26=FACE_OUTER_BOUND('',#33,.T.);
#27=EDGE_LOOP('',(#65,#66,#67,#68));
#28=EDGE_LOOP('',(#69));
#29=EDGE_LOOP('',(#70));
#30=EDGE_LOOP('',(#71,#72,#73,#74));
#31=EDGE_LOOP('',(#75,#76,#77,#78));
#32=EDGE_LOOP('',(#79,#80,#81,#82));
#33=EDGE_LOOP('',(#83));
#34=EDGE_LOOP('',(#84));
#35=LINE('',#154,#39);
#36=LINE('',#162,#40);
#37=LINE('',#166,#41);
#38=LINE('',#170,#42);
#39=VECTOR('',#125,38.65);
#40=VECTOR('',#136,38.15);
#41=VECTOR('',#141,53.);
#42=VECTOR('',#146,55.5);
#43=CIRCLE('',#108,38.15);
#44=CIRCLE('',#109,39.15);
#45=CIRCLE('',#111,50.5);
#46=CIRCLE('',#113,38.15);
#47=CIRCLE('',#115,55.5);
#48=CIRCLE('',#117,55.5);
#49=VERTEX_POINT('',#151);
#50=VERTEX_POINT('',#153);
#51=VERTEX_POINT('',#157);
#52=VERTEX_POINT('',#160);
#53=VERTEX_POINT('',#164);
#54=VERTEX_POINT('',#168);
#55=EDGE_CURVE('',#49,#49,#43,.T.);
#56=EDGE_CURVE('',#49,#50,#35,.T.);
#57=EDGE_CURVE('',#50,#50,#44,.T.);
#58=EDGE_CURVE('',#51,#51,#45,.T.);
#59=EDGE_CURVE('',#52,#52,#46,.T.);
#60=EDGE_CURVE('',#52,#49,#36,.T.);
#61=EDGE_CURVE('',#53,#53,#47,.T.);
#62=EDGE_CURVE('',#53,#51,#37,.T.);
#63=EDGE_CURVE('',#54,#54,#48,.T.);
#64=EDGE_CURVE('',#54,#53,#38,.T.);
#65=ORIENTED_EDGE('',*,*,#55,.T.);
#66=ORIENTED_EDGE('',*,*,#56,.T.);
#67=ORIENTED_EDGE('',*,*,#57,.T.);
#68=ORIENTED_EDGE('',*,*,#56,.F.);
#69=ORIENTED_EDGE('',*,*,#58,.F.);
#70=ORIENTED_EDGE('',*,*,#57,.F.);
#71=ORIENTED_EDGE('',*,*,#59,.F.);
#72=ORIENTED_EDGE('',*,*,#60,.T.);
#73=ORIENTED_EDGE('',*,*,#55,.F.);
#74=ORIENTED_EDGE('',*,*,#60,.F.);
#75=ORIENTED_EDGE('',*,*,#61,.T.);
#76=ORIENTED_EDGE('',*,*,#62,.T.);
#77=ORIENTED_EDGE('',*,*,#58,.T.);
#78=ORIENTED_EDGE('',*,*,#62,.F.);
#79=ORIENTED_EDGE('',*,*,#63,.F.);
#80=ORIENTED_EDGE('',*,*,#64,.T.);
#81=ORIENTED_EDGE('',*,*,#61,.F.);
#82=ORIENTED_EDGE('',*,*,#64,.F.);
#83=ORIENTED_EDGE('',*,*,#63,.T.);
#84=ORIENTED_EDGE('',*,*,#59,.T.);
#85=CONICAL_SURFACE('',#107,38.65,0.785398163397449);
#86=CONICAL_SURFACE('',#114,53.,0.785398163397448);
#87=ADVANCED_FACE('',(#21),#85,.F.);
#88=ADVANCED_FACE('',(#22,#17),#19,.F.);
#89=ADVANCED_FACE('',(#23),#15,.F.);
#90=ADVANCED_FACE('',(#24),#86,.T.);
#91=ADVANCED_FACE('',(#25),#16,.T.);
#92=ADVANCED_FACE('',(#26,#18),#20,.T.);
#93=CLOSED_SHELL('',(#87,#88,#89,#90,#91,#92));
#94=DERIVED_UNIT_ELEMENT(#96,1.);
#95=DERIVED_UNIT_ELEMENT(#177,3.);
#96=(
MASS_UNIT()
NAMED_UNIT(*)
SI_UNIT(.KILO.,.GRAM.)
);
#97=DERIVED_UNIT((#94,#95));
#98=MEASURE_REPRESENTATION_ITEM('density measure',
POSITIVE_RATIO_MEASURE(7850.),#97);
#99=PROPERTY_DEFINITION_REPRESENTATION(#104,#101);
#100=PROPERTY_DEFINITION_REPRESENTATION(#105,#102);
#101=REPRESENTATION('material name',(#103),#174);
#102=REPRESENTATION('density',(#98),#174);
#103=DESCRIPTIVE_REPRESENTATION_ITEM('Steel','Steel');
#104=PROPERTY_DEFINITION('material property','material name',#184);
#105=PROPERTY_DEFINITION('material property','density of part',#184);
#106=AXIS2_PLACEMENT_3D('placement',#149,#119,#120);
#107=AXIS2_PLACEMENT_3D('',#150,#121,#122);
#108=AXIS2_PLACEMENT_3D('',#152,#123,#124);
#109=AXIS2_PLACEMENT_3D('',#155,#126,#127);
#110=AXIS2_PLACEMENT_3D('',#156,#128,#129);
#111=AXIS2_PLACEMENT_3D('',#158,#130,#131);
#112=AXIS2_PLACEMENT_3D('',#159,#132,#133);
#113=AXIS2_PLACEMENT_3D('',#161,#134,#135);
#114=AXIS2_PLACEMENT_3D('',#163,#137,#138);
#115=AXIS2_PLACEMENT_3D('',#165,#139,#140);
#116=AXIS2_PLACEMENT_3D('',#167,#142,#143);
#117=AXIS2_PLACEMENT_3D('',#169,#144,#145);
#118=AXIS2_PLACEMENT_3D('',#171,#147,#148);
#119=DIRECTION('axis',(0.,0.,1.));
#120=DIRECTION('refdir',(1.,0.,0.));
#121=DIRECTION('center_axis',(0.,-1.,0.));
#122=DIRECTION('ref_axis',(1.,0.,0.));
#123=DIRECTION('center_axis',(0.,1.,0.));
#124=DIRECTION('ref_axis',(1.,0.,0.));
#125=DIRECTION('',(-0.707106781186548,-0.707106781186547,8.65956056235494E-17));
#126=DIRECTION('center_axis',(0.,-1.,0.));
#127=DIRECTION('ref_axis',(1.,0.,0.));
#128=DIRECTION('center_axis',(0.,1.,0.));
#129=DIRECTION('ref_axis',(1.,0.,0.));
#130=DIRECTION('center_axis',(0.,1.,0.));
#131=DIRECTION('ref_axis',(1.,0.,0.));
#132=DIRECTION('center_axis',(0.,1.,0.));
#133=DIRECTION('ref_axis',(1.,0.,0.));
#134=DIRECTION('center_axis',(0.,-1.,0.));
#135=DIRECTION('ref_axis',(1.,0.,0.));
#136=DIRECTION('',(0.,-1.,0.));
#137=DIRECTION('center_axis',(0.,1.,0.));
#138=DIRECTION('ref_axis',(1.,0.,0.));
#139=DIRECTION('center_axis',(0.,-1.,0.));
#140=DIRECTION('ref_axis',(1.,0.,0.));
#141=DIRECTION('',(0.707106781186547,-0.707106781186547,-8.65956056235493E-17));
#142=DIRECTION('center_axis',(0.,1.,0.));
#143=DIRECTION('ref_axis',(1.,0.,0.));
#144=DIRECTION('center_axis',(0.,1.,0.));
#145=DIRECTION('ref_axis',(1.,0.,0.));
#146=DIRECTION('',(0.,-1.,0.));
#147=DIRECTION('center_axis',(0.,1.,0.));
#148=DIRECTION('ref_axis',(1.,0.,0.));
#149=CARTESIAN_POINT('',(0.,0.,0.));
#150=CARTESIAN_POINT('Origin',(0.,0.5,0.));
#151=CARTESIAN_POINT('',(-38.15,1.,4.67202753874715E-15));
#152=CARTESIAN_POINT('Origin',(0.,1.,0.));
#153=CARTESIAN_POINT('',(-39.15,0.,-4.79449221866189E-15));
#154=CARTESIAN_POINT('',(-38.65,0.5,4.73325987870452E-15));
#155=CARTESIAN_POINT('Origin',(0.,0.,0.));
#156=CARTESIAN_POINT('Origin',(0.,0.,0.));
#157=CARTESIAN_POINT('',(-50.5,0.,6.18446633569414E-15));
#158=CARTESIAN_POINT('Origin',(0.,0.,0.));
#159=CARTESIAN_POINT('Origin',(0.,0.,0.));
#160=CARTESIAN_POINT('',(-38.15,40.,4.67202753874715E-15));
#161=CARTESIAN_POINT('Origin',(0.,40.,0.));
#162=CARTESIAN_POINT('',(-38.15,0.,4.67202753874715E-15));
#163=CARTESIAN_POINT('Origin',(0.,2.5,0.));
#164=CARTESIAN_POINT('',(-55.5,5.,-6.79678973526781E-15));
#165=CARTESIAN_POINT('Origin',(0.,5.,0.));
#166=CARTESIAN_POINT('',(-53.,2.5,6.49062803548097E-15));
#167=CARTESIAN_POINT('Origin',(0.,0.,0.));
#168=CARTESIAN_POINT('',(-55.5,40.,6.79678973526781E-15));
#169=CARTESIAN_POINT('Origin',(0.,40.,0.));
#170=CARTESIAN_POINT('',(-55.5,0.,6.79678973526781E-15));
#171=CARTESIAN_POINT('Origin',(0.,40.,0.));
#172=UNCERTAINTY_MEASURE_WITH_UNIT(LENGTH_MEASURE(0.01),#176,
'DISTANCE_ACCURACY_VALUE',
'Maximum model space distance between geometric entities at asserted c
onnectivities');
#173=UNCERTAINTY_MEASURE_WITH_UNIT(LENGTH_MEASURE(0.01),#176,
'DISTANCE_ACCURACY_VALUE',
'Maximum model space distance between geometric entities at asserted c
onnectivities');
#174=(
GEOMETRIC_REPRESENTATION_CONTEXT(3)
GLOBAL_UNCERTAINTY_ASSIGNED_CONTEXT((#172))
GLOBAL_UNIT_ASSIGNED_CONTEXT((#176,#178,#179))
REPRESENTATION_CONTEXT('','3D')
);
#175=(
GEOMETRIC_REPRESENTATION_CONTEXT(3)
GLOBAL_UNCERTAINTY_ASSIGNED_CONTEXT((#173))
GLOBAL_UNIT_ASSIGNED_CONTEXT((#176,#178,#179))
REPRESENTATION_CONTEXT('','3D')
);
#176=(
LENGTH_UNIT()
NAMED_UNIT(*)
SI_UNIT(.MILLI.,.METRE.)
);
#177=(
LENGTH_UNIT()
NAMED_UNIT(*)
SI_UNIT($,.METRE.)
);
#178=(
NAMED_UNIT(*)
PLANE_ANGLE_UNIT()
SI_UNIT($,.RADIAN.)
);
#179=(
NAMED_UNIT(*)
SI_UNIT($,.STERADIAN.)
SOLID_ANGLE_UNIT()
);
#180=SHAPE_DEFINITION_REPRESENTATION(#181,#182);
#181=PRODUCT_DEFINITION_SHAPE('',$,#184);
#182=SHAPE_REPRESENTATION('',(#106),#174);
#183=PRODUCT_DEFINITION_CONTEXT('part definition',#188,'design');
#184=PRODUCT_DEFINITION('(Unsaved)','(Unsaved)',#185,#183);
#185=PRODUCT_DEFINITION_FORMATION('',$,#190);
#186=PRODUCT_RELATED_PRODUCT_CATEGORY('(Unsaved)','(Unsaved)',(#190));
#187=APPLICATION_PROTOCOL_DEFINITION('international standard',
'automotive_design',2009,#188);
#188=APPLICATION_CONTEXT(
'Core Data for Automotive Mechanical Design Process');
#189=PRODUCT_CONTEXT('part definition',#188,'mechanical');
#190=PRODUCT('(Unsaved)','(Unsaved)',$,(#189));
#191=PRESENTATION_STYLE_ASSIGNMENT((#192));
#192=SURFACE_STYLE_USAGE(.BOTH.,#193);
#193=SURFACE_SIDE_STYLE('',(#194));
#194=SURFACE_STYLE_FILL_AREA(#195);
#195=FILL_AREA_STYLE('Steel - Satin',(#196));
#196=FILL_AREA_STYLE_COLOUR('Steel - Satin',#197);
#197=COLOUR_RGB('Steel - Satin',0.627450980392157,0.627450980392157,0.627450980392157);
ENDSEC;
END-ISO-10303-21;
