ISO-10303-21;
HEADER;
FILE_DESCRIPTION (( 'STEP AP214' ),
    '1' );
FILE_NAME ('Renfort echelle.STEP',
    '2020-03-04T17:22:16',
    ( 'Olivier' ),
    ( 'Microsoft' ),
    'SwSTEP 2.0',
    'SolidWorks 2010',
    '' );
FILE_SCHEMA (( 'AUTOMOTIVE_DESIGN' ));
ENDSEC;

DATA;
#1 = FILL_AREA_STYLE ('',( #186 ) ) ;
#2 = PRODUCT_DEFINITION_CONTEXT ( 'detailed design', #76, 'design' ) ;
#3 = PRODUCT_DEFINITION_SHAPE ( 'NONE', 'NONE',  #242 ) ;
#4 = ORIENTED_EDGE ( 'NONE', *, *, #213, .F. ) ;
#5 = SURFACE_SIDE_STYLE ('',( #371 ) ) ;
#6 = SURFACE_STYLE_USAGE ( .BOTH. , #5 ) ;
#7 =( LENGTH_UNIT ( ) NAMED_UNIT ( * ) SI_UNIT ( .MILLI., .METRE. ) );
#8 =( NAMED_UNIT ( * ) PLANE_ANGLE_UNIT ( ) SI_UNIT ( $, .RADIAN. ) );
#9 =( NAMED_UNIT ( * ) SI_UNIT ( $, .STERADIAN. ) SOLID_ANGLE_UNIT ( ) );
#10 = CARTESIAN_POINT ( 'NONE',  ( -55.25709440795947100, 30.47252042007001500, 5.000000000000000000 ) ) ;
#11 = DIRECTION ( 'NONE',  ( -0.0000000000000000000, -0.0000000000000000000, -1.000000000000000000 ) ) ;
#12 = DIRECTION ( 'NONE',  ( -1.000000000000000000, 0.0000000000000000000, 0.0000000000000000000 ) ) ;
#13 = DIRECTION ( 'NONE',  ( -1.000000000000000000, 0.0000000000000000000, 0.0000000000000000000 ) ) ;
#14 = DIRECTION ( 'NONE',  ( -0.0000000000000000000, -0.0000000000000000000, -1.000000000000000000 ) ) ;
#15 = FILL_AREA_STYLE_COLOUR ( '', #386 ) ;
#16 = FILL_AREA_STYLE ('',( #15 ) ) ;
#17 = SURFACE_SIDE_STYLE ('',( #378 ) ) ;
#18 = SURFACE_STYLE_USAGE ( .BOTH. , #17 ) ;
#19 =( LENGTH_UNIT ( ) NAMED_UNIT ( * ) SI_UNIT ( .MILLI., .METRE. ) );
#20 =( NAMED_UNIT ( * ) PLANE_ANGLE_UNIT ( ) SI_UNIT ( $, .RADIAN. ) );
#21 =( NAMED_UNIT ( * ) SI_UNIT ( $, .STERADIAN. ) SOLID_ANGLE_UNIT ( ) );
#22 = CARTESIAN_POINT ( 'NONE',  ( -55.25709440795947100, 30.47252042007001500, 5.000000000000000000 ) ) ;
#23 = DIRECTION ( 'NONE',  ( -0.0000000000000000000, -0.0000000000000000000, -1.000000000000000000 ) ) ;
#24 = CARTESIAN_POINT ( 'NONE',  ( -65.25709440795947100, 15.47252042007001700, 5.000000000000000000 ) ) ;
#25 = PLANE ( 'NONE',  #232 ) ;
#26 = DIRECTION ( 'NONE',  ( 1.000000000000000000, 0.0000000000000000000, 0.0000000000000000000 ) ) ;
#27 = DIRECTION ( 'NONE',  ( 0.0000000000000000000, 0.0000000000000000000, -1.000000000000000000 ) ) ;
#28 = PLANE ( 'NONE',  #233 ) ;
#29 = CARTESIAN_POINT ( 'NONE',  ( -65.25709440795947100, 45.47252042007001900, 0.0000000000000000000 ) ) ;
#30 = DIRECTION ( 'NONE',  ( 0.0000000000000000000, 0.0000000000000000000, -1.000000000000000000 ) ) ;
#31 = DIRECTION ( 'NONE',  ( -1.000000000000000000, 0.0000000000000000000, -0.0000000000000000000 ) ) ;
#32 = CARTESIAN_POINT ( 'NONE',  ( -5.257094407959475500, 15.47252042007001700, 5.000000000000000000 ) ) ;
#33 = FILL_AREA_STYLE_COLOUR ( '', #397 ) ;
#34 = FILL_AREA_STYLE ('',( #33 ) ) ;
#35 = SURFACE_SIDE_STYLE ('',( #391 ) ) ;
#36 = SURFACE_STYLE_USAGE ( .BOTH. , #35 ) ;
#37 =( LENGTH_UNIT ( ) NAMED_UNIT ( * ) SI_UNIT ( .MILLI., .METRE. ) );
#38 =( NAMED_UNIT ( * ) PLANE_ANGLE_UNIT ( ) SI_UNIT ( $, .RADIAN. ) );
#39 =( NAMED_UNIT ( * ) SI_UNIT ( $, .STERADIAN. ) SOLID_ANGLE_UNIT ( ) );
#40 = CARTESIAN_POINT ( 'NONE',  ( -15.25709440795947300, 30.47252042007001500, 5.000000000000000000 ) ) ;
#41 = PLANE ( 'NONE',  #238 ) ;
#42 = DIRECTION ( 'NONE',  ( -1.000000000000000000, 0.0000000000000000000, 0.0000000000000000000 ) ) ;
#43 = CARTESIAN_POINT ( 'NONE',  ( -65.25709440795947100, 15.47252042007001700, 5.000000000000000000 ) ) ;
#44 = PLANE ( 'NONE',  #236 ) ;
#45 = DIRECTION ( 'NONE',  ( 0.0000000000000000000, 1.000000000000000000, 0.0000000000000000000 ) ) ;
#46 = DIRECTION ( 'NONE',  ( 0.0000000000000000000, -0.0000000000000000000, 1.000000000000000000 ) ) ;
#47 = PLANE ( 'NONE',  #237 ) ;
#48 = CARTESIAN_POINT ( 'NONE',  ( -65.25709440795947100, 45.47252042007001900, 5.000000000000000000 ) ) ;
#49 = DIRECTION ( 'NONE',  ( 0.0000000000000000000, 0.0000000000000000000, -1.000000000000000000 ) ) ;
#50 = DIRECTION ( 'NONE',  ( -1.000000000000000000, 0.0000000000000000000, -0.0000000000000000000 ) ) ;
#51 = FILL_AREA_STYLE_COLOUR ( '', #392 ) ;
#52 = DIRECTION ( 'NONE',  ( -1.000000000000000000, 0.0000000000000000000, 0.0000000000000000000 ) ) ;
#53 = DIRECTION ( 'NONE',  ( 0.0000000000000000000, 0.0000000000000000000, 1.000000000000000000 ) ) ;
#54 = FILL_AREA_STYLE ('',( #64 ) ) ;
#55 = FILL_AREA_STYLE ('',( #51 ) ) ;
#56 = SURFACE_SIDE_STYLE ('',( #405 ) ) ;
#57 = SURFACE_STYLE_USAGE ( .BOTH. , #56 ) ;
#58 =( LENGTH_UNIT ( ) NAMED_UNIT ( * ) SI_UNIT ( .MILLI., .METRE. ) );
#59 =( NAMED_UNIT ( * ) PLANE_ANGLE_UNIT ( ) SI_UNIT ( $, .RADIAN. ) );
#60 =( NAMED_UNIT ( * ) SI_UNIT ( $, .STERADIAN. ) SOLID_ANGLE_UNIT ( ) );
#61 =( LENGTH_UNIT ( ) NAMED_UNIT ( * ) SI_UNIT ( .MILLI., .METRE. ) );
#62 =( NAMED_UNIT ( * ) PLANE_ANGLE_UNIT ( ) SI_UNIT ( $, .RADIAN. ) );
#63 =( NAMED_UNIT ( * ) SI_UNIT ( $, .STERADIAN. ) SOLID_ANGLE_UNIT ( ) );
#64 = FILL_AREA_STYLE_COLOUR ( '', #179 ) ;
#65 = SURFACE_SIDE_STYLE ('',( #408 ) ) ;
#66 = SURFACE_STYLE_USAGE ( .BOTH. , #65 ) ;
#67 =( LENGTH_UNIT ( ) NAMED_UNIT ( * ) SI_UNIT ( .MILLI., .METRE. ) );
#68 =( NAMED_UNIT ( * ) PLANE_ANGLE_UNIT ( ) SI_UNIT ( $, .RADIAN. ) );
#69 =( NAMED_UNIT ( * ) SI_UNIT ( $, .STERADIAN. ) SOLID_ANGLE_UNIT ( ) );
#70 = CARTESIAN_POINT ( 'NONE',  ( 0.0000000000000000000, 0.0000000000000000000, 0.0000000000000000000 ) ) ;
#71 = DIRECTION ( 'NONE',  ( 0.0000000000000000000, 0.0000000000000000000, 1.000000000000000000 ) ) ;
#72 = DIRECTION ( 'NONE',  ( 1.000000000000000000, 0.0000000000000000000, 0.0000000000000000000 ) ) ;
#73 = APPLICATION_CONTEXT ( 'automotive_design' ) ;
#74 = APPLICATION_PROTOCOL_DEFINITION ( 'draft international standard', 'automotive_design', 1998, #73 ) ;
#75 = PRODUCT_CONTEXT ( 'NONE', #73, 'mechanical' ) ;
#76 = APPLICATION_CONTEXT ( 'automotive_design' ) ;
#77 = APPLICATION_PROTOCOL_DEFINITION ( 'draft international standard', 'automotive_design', 1998, #76 ) ;
#78 = PRODUCT ( 'Renfort echelle', 'Renfort echelle', '', ( #75 ) ) ;
#79 = EDGE_LOOP ( 'NONE', ( #301, #302 ) ) ;
#80 = EDGE_LOOP ( 'NONE', ( #309, #310, #311, #312 ) ) ;
#81 = CLOSED_SHELL ( 'NONE', ( #256, #258, #263, #260, #259, #262, #264, #255, #257, #261 ) ) ;
#82 = EDGE_LOOP ( 'NONE', ( #295, #288, #289, #277 ) ) ;
#83 =( NAMED_UNIT ( * ) SI_UNIT ( $, .STERADIAN. ) SOLID_ANGLE_UNIT ( ) );
#84 = CARTESIAN_POINT ( 'NONE',  ( -15.25709440795947300, 30.47252042007001500, 5.000000000000000000 ) ) ;
#85 =( LENGTH_UNIT ( ) NAMED_UNIT ( * ) SI_UNIT ( .MILLI., .METRE. ) );
#86 =( NAMED_UNIT ( * ) PLANE_ANGLE_UNIT ( ) SI_UNIT ( $, .RADIAN. ) );
#87 = CARTESIAN_POINT ( 'NONE',  ( -17.75709440795947100, 30.47252042007001500, 5.000000000000000000 ) ) ;
#88 = VERTEX_POINT ( 'NONE', #91 ) ;
#89 = CARTESIAN_POINT ( 'NONE',  ( -5.257094407959475500, 15.47252042007001700, 0.0000000000000000000 ) ) ;
#90 = CARTESIAN_POINT ( 'NONE',  ( -12.75709440795947100, 30.47252042007001500, 0.0000000000000000000 ) ) ;
#91 = CARTESIAN_POINT ( 'NONE',  ( -65.25709440795947100, 45.47252042007001900, 5.000000000000000000 ) ) ;
#92 = VERTEX_POINT ( 'NONE', #107 ) ;
#93 = VERTEX_POINT ( 'NONE', #87 ) ;
#94 = VERTEX_POINT ( 'NONE', #108 ) ;
#95 = VERTEX_POINT ( 'NONE', #90 ) ;
#96 = VERTEX_POINT ( 'NONE', #109 ) ;
#97 = VERTEX_POINT ( 'NONE', #110 ) ;
#98 = VERTEX_POINT ( 'NONE', #111 ) ;
#99 = VERTEX_POINT ( 'NONE', #89 ) ;
#100 = VERTEX_POINT ( 'NONE', #112 ) ;
#101 = VERTEX_POINT ( 'NONE', #113 ) ;
#102 = VERTEX_POINT ( 'NONE', #114 ) ;
#103 = VERTEX_POINT ( 'NONE', #115 ) ;
#104 = VERTEX_POINT ( 'NONE', #116 ) ;
#105 = VERTEX_POINT ( 'NONE', #117 ) ;
#106 = VERTEX_POINT ( 'NONE', #118 ) ;
#107 = CARTESIAN_POINT ( 'NONE',  ( -17.75709440795947100, 30.47252042007001500, 0.0000000000000000000 ) ) ;
#108 = CARTESIAN_POINT ( 'NONE',  ( -12.75709440795947100, 30.47252042007001500, 5.000000000000000000 ) ) ;
#109 = CARTESIAN_POINT ( 'NONE',  ( -65.25709440795947100, 45.47252042007001900, 0.0000000000000000000 ) ) ;
#110 = CARTESIAN_POINT ( 'NONE',  ( -65.25709440795947100, 15.47252042007001700, 0.0000000000000000000 ) ) ;
#111 = CARTESIAN_POINT ( 'NONE',  ( -5.257094407959475500, 45.47252042007001900, 0.0000000000000000000 ) ) ;
#112 = CARTESIAN_POINT ( 'NONE',  ( -5.257094407959475500, 45.47252042007001900, 5.000000000000000000 ) ) ;
#113 = CARTESIAN_POINT ( 'NONE',  ( -5.257094407959475500, 15.47252042007001700, 5.000000000000000000 ) ) ;
#114 = CARTESIAN_POINT ( 'NONE',  ( -65.25709440795947100, 15.47252042007001700, 5.000000000000000000 ) ) ;
#115 = CARTESIAN_POINT ( 'NONE',  ( -52.75709440795947100, 30.47252042007001500, 5.000000000000000000 ) ) ;
#116 = CARTESIAN_POINT ( 'NONE',  ( -57.75709440795947100, 30.47252042007001500, 5.000000000000000000 ) ) ;
#117 = CARTESIAN_POINT ( 'NONE',  ( -52.75709440795947100, 30.47252042007001500, 0.0000000000000000000 ) ) ;
#118 = CARTESIAN_POINT ( 'NONE',  ( -57.75709440795947100, 30.47252042007001500, 0.0000000000000000000 ) ) ;
#119 = CARTESIAN_POINT ( 'NONE',  ( -17.75709440795947100, 30.47252042007001500, 5.000000000000000000 ) ) ;
#120 = CARTESIAN_POINT ( 'NONE',  ( -15.25709440795947300, 30.47252042007001500, 0.0000000000000000000 ) ) ;
#121 = DIRECTION ( 'NONE',  ( 0.0000000000000000000, 0.0000000000000000000, 1.000000000000000000 ) ) ;
#122 = DIRECTION ( 'NONE',  ( 1.000000000000000000, 0.0000000000000000000, 0.0000000000000000000 ) ) ;
#123 = CARTESIAN_POINT ( 'NONE',  ( -12.75709440795947100, 30.47252042007001500, 5.000000000000000000 ) ) ;
#124 = DIRECTION ( 'NONE',  ( -0.0000000000000000000, -0.0000000000000000000, -1.000000000000000000 ) ) ;
#125 = CARTESIAN_POINT ( 'NONE',  ( -15.25709440795947300, 30.47252042007001500, 5.000000000000000000 ) ) ;
#126 = DIRECTION ( 'NONE',  ( 0.0000000000000000000, 0.0000000000000000000, 1.000000000000000000 ) ) ;
#127 = DIRECTION ( 'NONE',  ( 1.000000000000000000, 0.0000000000000000000, 0.0000000000000000000 ) ) ;
#128 = CARTESIAN_POINT ( 'NONE',  ( -55.25709440795947100, 30.47252042007001500, 5.000000000000000000 ) ) ;
#129 = DIRECTION ( 'NONE',  ( -0.0000000000000000000, -0.0000000000000000000, -1.000000000000000000 ) ) ;
#130 = CARTESIAN_POINT ( 'NONE',  ( -65.25709440795947100, 45.47252042007001900, 5.000000000000000000 ) ) ;
#131 = DIRECTION ( 'NONE',  ( 0.0000000000000000000, 0.0000000000000000000, 1.000000000000000000 ) ) ;
#132 = DIRECTION ( 'NONE',  ( 1.000000000000000000, 0.0000000000000000000, 0.0000000000000000000 ) ) ;
#133 = CARTESIAN_POINT ( 'NONE',  ( -55.25709440795947100, 30.47252042007001500, 5.000000000000000000 ) ) ;
#134 = DIRECTION ( 'NONE',  ( 0.0000000000000000000, 0.0000000000000000000, 1.000000000000000000 ) ) ;
#135 = DIRECTION ( 'NONE',  ( 1.000000000000000000, 0.0000000000000000000, 0.0000000000000000000 ) ) ;
#136 = CARTESIAN_POINT ( 'NONE',  ( -15.25709440795947300, 30.47252042007001500, 5.000000000000000000 ) ) ;
#137 = CARTESIAN_POINT ( 'NONE',  ( -52.75709440795947100, 30.47252042007001500, 5.000000000000000000 ) ) ;
#138 = DIRECTION ( 'NONE',  ( -1.000000000000000000, -0.0000000000000000000, -0.0000000000000000000 ) ) ;
#139 = CARTESIAN_POINT ( 'NONE',  ( -55.25709440795947100, 30.47252042007001500, 0.0000000000000000000 ) ) ;
#140 = DIRECTION ( 'NONE',  ( 0.0000000000000000000, 0.0000000000000000000, 1.000000000000000000 ) ) ;
#141 = DIRECTION ( 'NONE',  ( 1.000000000000000000, 0.0000000000000000000, 0.0000000000000000000 ) ) ;
#142 = CARTESIAN_POINT ( 'NONE',  ( -55.25709440795947100, 30.47252042007001500, 0.0000000000000000000 ) ) ;
#143 = DIRECTION ( 'NONE',  ( -0.0000000000000000000, -0.0000000000000000000, -1.000000000000000000 ) ) ;
#144 = CARTESIAN_POINT ( 'NONE',  ( -57.75709440795947100, 30.47252042007001500, 5.000000000000000000 ) ) ;
#145 = DIRECTION ( 'NONE',  ( -0.0000000000000000000, -0.0000000000000000000, -1.000000000000000000 ) ) ;
#146 = CARTESIAN_POINT ( 'NONE',  ( -65.25709440795947100, 15.47252042007001700, 5.000000000000000000 ) ) ;
#147 = DIRECTION ( 'NONE',  ( 1.000000000000000000, 0.0000000000000000000, 0.0000000000000000000 ) ) ;
#148 = CARTESIAN_POINT ( 'NONE',  ( -65.25709440795947100, 15.47252042007001700, 5.000000000000000000 ) ) ;
#149 = DIRECTION ( 'NONE',  ( -0.0000000000000000000, -1.000000000000000000, -0.0000000000000000000 ) ) ;
#150 = CARTESIAN_POINT ( 'NONE',  ( -5.257094407959475500, 15.47252042007001700, 5.000000000000000000 ) ) ;
#151 = DIRECTION ( 'NONE',  ( 0.0000000000000000000, 1.000000000000000000, 0.0000000000000000000 ) ) ;
#152 = CARTESIAN_POINT ( 'NONE',  ( -65.25709440795947100, 15.47252042007001700, 0.0000000000000000000 ) ) ;
#153 = DIRECTION ( 'NONE',  ( 0.0000000000000000000, 0.0000000000000000000, 1.000000000000000000 ) ) ;
#154 = DIRECTION ( 'NONE',  ( 1.000000000000000000, 0.0000000000000000000, 0.0000000000000000000 ) ) ;
#155 = DIRECTION ( 'NONE',  ( 0.0000000000000000000, 0.0000000000000000000, 1.000000000000000000 ) ) ;
#156 = DIRECTION ( 'NONE',  ( 1.000000000000000000, 0.0000000000000000000, 0.0000000000000000000 ) ) ;
#157 = CARTESIAN_POINT ( 'NONE',  ( -65.25709440795947100, 45.47252042007001900, 0.0000000000000000000 ) ) ;
#158 = DIRECTION ( 'NONE',  ( -1.000000000000000000, -0.0000000000000000000, -0.0000000000000000000 ) ) ;
#159 = CARTESIAN_POINT ( 'NONE',  ( -65.25709440795947100, 15.47252042007001700, 0.0000000000000000000 ) ) ;
#160 = DIRECTION ( 'NONE',  ( 1.000000000000000000, 0.0000000000000000000, 0.0000000000000000000 ) ) ;
#161 = CARTESIAN_POINT ( 'NONE',  ( -5.257094407959475500, 15.47252042007001700, 0.0000000000000000000 ) ) ;
#162 = DIRECTION ( 'NONE',  ( -0.0000000000000000000, -1.000000000000000000, -0.0000000000000000000 ) ) ;
#163 = CARTESIAN_POINT ( 'NONE',  ( -65.25709440795947100, 15.47252042007001700, 5.000000000000000000 ) ) ;
#164 = DIRECTION ( 'NONE',  ( 0.0000000000000000000, 1.000000000000000000, 0.0000000000000000000 ) ) ;
#165 = CARTESIAN_POINT ( 'NONE',  ( -15.25709440795947300, 30.47252042007001500, 0.0000000000000000000 ) ) ;
#166 = DIRECTION ( 'NONE',  ( -0.0000000000000000000, -0.0000000000000000000, -1.000000000000000000 ) ) ;
#167 = DIRECTION ( 'NONE',  ( 0.0000000000000000000, 0.0000000000000000000, 1.000000000000000000 ) ) ;
#168 = DIRECTION ( 'NONE',  ( 1.000000000000000000, 0.0000000000000000000, 0.0000000000000000000 ) ) ;
#169 = CARTESIAN_POINT ( 'NONE',  ( -5.257094407959475500, 15.47252042007001700, 5.000000000000000000 ) ) ;
#170 = DIRECTION ( 'NONE',  ( -0.0000000000000000000, -0.0000000000000000000, -1.000000000000000000 ) ) ;
#171 = CARTESIAN_POINT ( 'NONE',  ( -5.257094407959475500, 45.47252042007001900, 5.000000000000000000 ) ) ;
#172 = DIRECTION ( 'NONE',  ( -0.0000000000000000000, -0.0000000000000000000, -1.000000000000000000 ) ) ;
#173 = CARTESIAN_POINT ( 'NONE',  ( -65.25709440795947100, 45.47252042007001900, 5.000000000000000000 ) ) ;
#174 = CARTESIAN_POINT ( 'NONE',  ( -65.25709440795947100, 45.47252042007001900, 5.000000000000000000 ) ) ;
#175 = DIRECTION ( 'NONE',  ( -0.0000000000000000000, -0.0000000000000000000, -1.000000000000000000 ) ) ;
#176 = PLANE ( 'NONE',  #222 ) ;
#177 = DIRECTION ( 'NONE',  ( 0.0000000000000000000, -1.000000000000000000, 0.0000000000000000000 ) ) ;
#178 =( GEOMETRIC_REPRESENTATION_CONTEXT ( 3 ) GLOBAL_UNCERTAINTY_ASSIGNED_CONTEXT ( ( #271 ) ) GLOBAL_UNIT_ASSIGNED_CONTEXT ( ( #61, #62, #63 ) ) REPRESENTATION_CONTEXT ( 'NONE', 'WORKASPACE' ) );
#179 = COLOUR_RGB ( '',0.7921568627450980000, 0.8196078431372548800, 0.9333333333333333500 ) ;
#180 = PRESENTATION_STYLE_ASSIGNMENT (( #66 ) ) ;
#181 = STYLED_ITEM ( 'NONE', ( #180 ), #272 ) ;
#182 =( GEOMETRIC_REPRESENTATION_CONTEXT ( 3 ) GLOBAL_UNCERTAINTY_ASSIGNED_CONTEXT ( ( #273 ) ) GLOBAL_UNIT_ASSIGNED_CONTEXT ( ( #67, #68, #69 ) ) REPRESENTATION_CONTEXT ( 'NONE', 'WORKASPACE' ) );
#183 = SHAPE_DEFINITION_REPRESENTATION ( #3, #272 ) ;
#184 = DIRECTION ( 'NONE',  ( -0.0000000000000000000, -0.0000000000000000000, -1.000000000000000000 ) ) ;
#185 = DIRECTION ( 'NONE',  ( -1.000000000000000000, 0.0000000000000000000, 0.0000000000000000000 ) ) ;
#186 = FILL_AREA_STYLE_COLOUR ( '', #379 ) ;
#187 = EDGE_CURVE ( 'NONE', #92, #95, #329, .T. ) ;
#188 = AXIS2_PLACEMENT_3D ( 'NONE', #128, #131, #132 ) ;
#189 = AXIS2_PLACEMENT_3D ( 'NONE', #139, #140, #141 ) ;
#190 = AXIS2_PLACEMENT_3D ( 'NONE', #136, #155, #156 ) ;
#191 = EDGE_CURVE ( 'NONE', #93, #92, #328, .T. ) ;
#192 = EDGE_CURVE ( 'NONE', #93, #94, #332, .T. ) ;
#193 = EDGE_CURVE ( 'NONE', #94, #95, #331, .T. ) ;
#194 = EDGE_CURVE ( 'NONE', #103, #104, #334, .T. ) ;
#195 = EDGE_CURVE ( 'NONE', #104, #103, #336, .T. ) ;
#196 = EDGE_CURVE ( 'NONE', #100, #88, #335, .T. ) ;
#197 = EDGE_CURVE ( 'NONE', #106, #105, #339, .T. ) ;
#198 = EDGE_CURVE ( 'NONE', #103, #105, #338, .T. ) ;
#199 = EDGE_CURVE ( 'NONE', #104, #106, #340, .T. ) ;
#200 = EDGE_CURVE ( 'NONE', #102, #101, #342, .T. ) ;
#201 = EDGE_CURVE ( 'NONE', #88, #102, #344, .T. ) ;
#202 = EDGE_CURVE ( 'NONE', #101, #100, #346, .T. ) ;
#203 = EDGE_CURVE ( 'NONE', #105, #106, #350, .T. ) ;
#204 = EDGE_CURVE ( 'NONE', #94, #93, #352, .T. ) ;
#205 = EDGE_CURVE ( 'NONE', #98, #96, #330, .T. ) ;
#206 = EDGE_CURVE ( 'NONE', #97, #99, #351, .T. ) ;
#207 = EDGE_CURVE ( 'NONE', #96, #97, #348, .T. ) ;
#208 = EDGE_CURVE ( 'NONE', #99, #98, #337, .T. ) ;
#209 = EDGE_CURVE ( 'NONE', #102, #97, #354, .T. ) ;
#210 = EDGE_CURVE ( 'NONE', #95, #92, #363, .T. ) ;
#211 = EDGE_CURVE ( 'NONE', #101, #99, #358, .T. ) ;
#212 = EDGE_CURVE ( 'NONE', #100, #98, #364, .T. ) ;
#213 = EDGE_CURVE ( 'NONE', #88, #96, #366, .T. ) ;
#214 = AXIS2_PLACEMENT_3D ( 'NONE', #125, #126, #127 ) ;
#215 = AXIS2_PLACEMENT_3D ( 'NONE', #120, #121, #122 ) ;
#216 = MECHANICAL_DESIGN_GEOMETRIC_PRESENTATION_REPRESENTATION (  '', ( #374 ), #375 ) ;
#217 = AXIS2_PLACEMENT_3D ( 'NONE', #165, #167, #168 ) ;
#218 = AXIS2_PLACEMENT_3D ( 'NONE', #133, #134, #135 ) ;
#219 = AXIS2_PLACEMENT_3D ( 'NONE', #142, #153, #154 ) ;
#220 = PRESENTATION_LAYER_ASSIGNMENT (  '', '', ( #381 ) ) ;
#221 = PRESENTATION_LAYER_ASSIGNMENT (  '', '', ( #374 ) ) ;
#222 = AXIS2_PLACEMENT_3D ( 'NONE', #173, #177, #250 ) ;
#223 = PRESENTATION_LAYER_ASSIGNMENT (  '', '', ( #388 ) ) ;
#224 = MECHANICAL_DESIGN_GEOMETRIC_PRESENTATION_REPRESENTATION (  '', ( #381 ), #382 ) ;
#225 = AXIS2_PLACEMENT_3D ( 'NONE', #84, #184, #185 ) ;
#226 = PRESENTATION_LAYER_ASSIGNMENT (  '', '', ( #399 ) ) ;
#227 = MECHANICAL_DESIGN_GEOMETRIC_PRESENTATION_REPRESENTATION (  '', ( #388 ), #389 ) ;
#228 = AXIS2_PLACEMENT_3D ( 'NONE', #10, #11, #12 ) ;
#229 = PRESENTATION_LAYER_ASSIGNMENT (  '', '', ( #406 ) ) ;
#230 = MECHANICAL_DESIGN_GEOMETRIC_PRESENTATION_REPRESENTATION (  '', ( #399 ), #400 ) ;
#231 = AXIS2_PLACEMENT_3D ( 'NONE', #22, #14, #13 ) ;
#232 = AXIS2_PLACEMENT_3D ( 'NONE', #24, #26, #27 ) ;
#233 = AXIS2_PLACEMENT_3D ( 'NONE', #29, #30, #31 ) ;
#234 = PRESENTATION_LAYER_ASSIGNMENT (  '', '', ( #181 ) ) ;
#235 = AXIS2_PLACEMENT_3D ( 'NONE', #40, #23, #42 ) ;
#236 = AXIS2_PLACEMENT_3D ( 'NONE', #43, #45, #46 ) ;
#237 = AXIS2_PLACEMENT_3D ( 'NONE', #48, #49, #50 ) ;
#238 = AXIS2_PLACEMENT_3D ( 'NONE', #32, #52, #53 ) ;
#239 = MECHANICAL_DESIGN_GEOMETRIC_PRESENTATION_REPRESENTATION (  '', ( #406 ), #407 ) ;
#240 = MECHANICAL_DESIGN_GEOMETRIC_PRESENTATION_REPRESENTATION (  '', ( #181 ), #182 ) ;
#241 = AXIS2_PLACEMENT_3D ( 'NONE', #70, #71, #72 ) ;
#242 = PRODUCT_DEFINITION ( 'UNKNOWN', '', #243, #2 ) ;
#243 = PRODUCT_DEFINITION_FORMATION_WITH_SPECIFIED_SOURCE ( 'ANY', '', #78, .NOT_KNOWN. ) ;
#244 = PRODUCT_RELATED_PRODUCT_CATEGORY ( 'part', '', ( #78 ) ) ;
#245 = ORIENTED_EDGE ( 'NONE', *, *, #202, .F. ) ;
#246 = ORIENTED_EDGE ( 'NONE', *, *, #208, .T. ) ;
#247 = ORIENTED_EDGE ( 'NONE', *, *, #209, .T. ) ;
#248 = ORIENTED_EDGE ( 'NONE', *, *, #212, .F. ) ;
#249 = ORIENTED_EDGE ( 'NONE', *, *, #200, .F. ) ;
#250 = DIRECTION ( 'NONE',  ( 0.0000000000000000000, -0.0000000000000000000, -1.000000000000000000 ) ) ;
#251 = SURFACE_SIDE_STYLE ('',( #369 ) ) ;
#252 = FILL_AREA_STYLE_COLOUR ( '', #372 ) ;
#253 = FILL_AREA_STYLE ('',( #252 ) ) ;
#254 = SURFACE_STYLE_USAGE ( .BOTH. , #251 ) ;
#255 = ADVANCED_FACE ( 'NONE', ( #360 ), #176, .F. ) ;
#256 = ADVANCED_FACE ( 'NONE', ( #370 ), #361, .F. ) ;
#257 = ADVANCED_FACE ( 'NONE', ( #368 ), #362, .F. ) ;
#258 = ADVANCED_FACE ( 'NONE', ( #376 ), #377, .F. ) ;
#259 = ADVANCED_FACE ( 'NONE', ( #383 ), #25, .F. ) ;
#260 = ADVANCED_FACE ( 'NONE', ( #390, #384, #394 ), #28, .T. ) ;
#261 = ADVANCED_FACE ( 'NONE', ( #395 ), #396, .F. ) ;
#262 = ADVANCED_FACE ( 'NONE', ( #385 ), #44, .F. ) ;
#263 = ADVANCED_FACE ( 'NONE', ( #401, #393, #403 ), #47, .F. ) ;
#264 = ADVANCED_FACE ( 'NONE', ( #404 ), #41, .F. ) ;
#265 = MANIFOLD_SOLID_BREP ( 'Boss.-Extru.1', #81 ) ;
#266 = UNCERTAINTY_MEASURE_WITH_UNIT (LENGTH_MEASURE( 1.000000000000000100E-005 ), #85, 'distance_accuracy_value', 'NONE');
#267 = UNCERTAINTY_MEASURE_WITH_UNIT (LENGTH_MEASURE( 1.000000000000000100E-005 ), #7, 'distance_accuracy_value', 'NONE');
#268 = UNCERTAINTY_MEASURE_WITH_UNIT (LENGTH_MEASURE( 1.000000000000000100E-005 ), #19, 'distance_accuracy_value', 'NONE');
#269 = UNCERTAINTY_MEASURE_WITH_UNIT (LENGTH_MEASURE( 1.000000000000000100E-005 ), #37, 'distance_accuracy_value', 'NONE');
#270 = UNCERTAINTY_MEASURE_WITH_UNIT (LENGTH_MEASURE( 1.000000000000000100E-005 ), #58, 'distance_accuracy_value', 'NONE');
#271 = UNCERTAINTY_MEASURE_WITH_UNIT (LENGTH_MEASURE( 1.000000000000000100E-005 ), #61, 'distance_accuracy_value', 'NONE');
#272 = ADVANCED_BREP_SHAPE_REPRESENTATION ( 'Renfort echelle', ( #265, #241 ), #178 ) ;
#273 = UNCERTAINTY_MEASURE_WITH_UNIT (LENGTH_MEASURE( 1.000000000000000100E-005 ), #67, 'distance_accuracy_value', 'NONE');
#274 = EDGE_LOOP ( 'NONE', ( #278, #281, #299, #294 ) ) ;
#275 = EDGE_LOOP ( 'NONE', ( #313, #314, #249, #247 ) ) ;
#276 = EDGE_LOOP ( 'NONE', ( #246, #248, #245, #409 ) ) ;
#277 = ORIENTED_EDGE ( 'NONE', *, *, #199, .F. ) ;
#278 = ORIENTED_EDGE ( 'NONE', *, *, #192, .T. ) ;
#279 = EDGE_LOOP ( 'NONE', ( #282, #283 ) ) ;
#280 = EDGE_LOOP ( 'NONE', ( #317, #318, #319, #320 ) ) ;
#281 = ORIENTED_EDGE ( 'NONE', *, *, #193, .T. ) ;
#282 = ORIENTED_EDGE ( 'NONE', *, *, #195, .F. ) ;
#283 = ORIENTED_EDGE ( 'NONE', *, *, #194, .F. ) ;
#284 = ORIENTED_EDGE ( 'NONE', *, *, #201, .T. ) ;
#285 = ORIENTED_EDGE ( 'NONE', *, *, #196, .T. ) ;
#286 = ORIENTED_EDGE ( 'NONE', *, *, #200, .T. ) ;
#287 = ORIENTED_EDGE ( 'NONE', *, *, #202, .T. ) ;
#288 = ORIENTED_EDGE ( 'NONE', *, *, #198, .T. ) ;
#289 = ORIENTED_EDGE ( 'NONE', *, *, #197, .F. ) ;
#290 = ORIENTED_EDGE ( 'NONE', *, *, #192, .F. ) ;
#291 = EDGE_LOOP ( 'NONE', ( #284, #286, #287, #285 ) ) ;
#292 = EDGE_LOOP ( 'NONE', ( #303, #304, #305, #306 ) ) ;
#293 = EDGE_LOOP ( 'NONE', ( #307, #308 ) ) ;
#294 = ORIENTED_EDGE ( 'NONE', *, *, #191, .F. ) ;
#295 = ORIENTED_EDGE ( 'NONE', *, *, #195, .T. ) ;
#296 = EDGE_LOOP ( 'NONE', ( #410, #4, #315, #316 ) ) ;
#297 = EDGE_LOOP ( 'NONE', ( #290, #300 ) ) ;
#298 = EDGE_LOOP ( 'NONE', ( #321, #322, #323, #324 ) ) ;
#299 = ORIENTED_EDGE ( 'NONE', *, *, #187, .F. ) ;
#300 = ORIENTED_EDGE ( 'NONE', *, *, #204, .F. ) ;
#301 = ORIENTED_EDGE ( 'NONE', *, *, #197, .T. ) ;
#302 = ORIENTED_EDGE ( 'NONE', *, *, #203, .T. ) ;
#303 = ORIENTED_EDGE ( 'NONE', *, *, #207, .F. ) ;
#304 = ORIENTED_EDGE ( 'NONE', *, *, #205, .F. ) ;
#305 = ORIENTED_EDGE ( 'NONE', *, *, #208, .F. ) ;
#306 = ORIENTED_EDGE ( 'NONE', *, *, #206, .F. ) ;
#307 = ORIENTED_EDGE ( 'NONE', *, *, #187, .T. ) ;
#308 = ORIENTED_EDGE ( 'NONE', *, *, #210, .T. ) ;
#309 = ORIENTED_EDGE ( 'NONE', *, *, #207, .T. ) ;
#310 = ORIENTED_EDGE ( 'NONE', *, *, #209, .F. ) ;
#311 = ORIENTED_EDGE ( 'NONE', *, *, #201, .F. ) ;
#312 = ORIENTED_EDGE ( 'NONE', *, *, #213, .T. ) ;
#313 = ORIENTED_EDGE ( 'NONE', *, *, #206, .T. ) ;
#314 = ORIENTED_EDGE ( 'NONE', *, *, #211, .F. ) ;
#315 = ORIENTED_EDGE ( 'NONE', *, *, #196, .F. ) ;
#316 = ORIENTED_EDGE ( 'NONE', *, *, #212, .T. ) ;
#317 = ORIENTED_EDGE ( 'NONE', *, *, #198, .F. ) ;
#318 = ORIENTED_EDGE ( 'NONE', *, *, #194, .T. ) ;
#319 = ORIENTED_EDGE ( 'NONE', *, *, #199, .T. ) ;
#320 = ORIENTED_EDGE ( 'NONE', *, *, #203, .F. ) ;
#321 = ORIENTED_EDGE ( 'NONE', *, *, #193, .F. ) ;
#322 = ORIENTED_EDGE ( 'NONE', *, *, #204, .T. ) ;
#323 = ORIENTED_EDGE ( 'NONE', *, *, #191, .T. ) ;
#324 = ORIENTED_EDGE ( 'NONE', *, *, #210, .F. ) ;
#325 = VECTOR ( 'NONE', #124, 1000.000000000000000 ) ;
#326 = VECTOR ( 'NONE', #143, 1000.000000000000000 ) ;
#327 = VECTOR ( 'NONE', #129, 1000.000000000000000 ) ;
#328 = LINE ( 'NONE', #119, #325 ) ;
#329 = CIRCLE ( 'NONE', #215, 2.500000000000000400 ) ;
#330 = LINE ( 'NONE', #157, #349 ) ;
#331 = LINE ( 'NONE', #123, #327 ) ;
#332 = CIRCLE ( 'NONE', #214, 2.500000000000000400 ) ;
#333 = VECTOR ( 'NONE', #138, 1000.000000000000000 ) ;
#334 = CIRCLE ( 'NONE', #188, 2.500000000000002200 ) ;
#335 = LINE ( 'NONE', #130, #333 ) ;
#336 = CIRCLE ( 'NONE', #218, 2.500000000000002200 ) ;
#337 = LINE ( 'NONE', #161, #357 ) ;
#338 = LINE ( 'NONE', #137, #326 ) ;
#339 = CIRCLE ( 'NONE', #189, 2.500000000000002200 ) ;
#340 = LINE ( 'NONE', #144, #341 ) ;
#341 = VECTOR ( 'NONE', #145, 1000.000000000000000 ) ;
#342 = LINE ( 'NONE', #146, #343 ) ;
#343 = VECTOR ( 'NONE', #147, 1000.000000000000000 ) ;
#344 = LINE ( 'NONE', #148, #345 ) ;
#345 = VECTOR ( 'NONE', #149, 1000.000000000000000 ) ;
#346 = LINE ( 'NONE', #150, #347 ) ;
#347 = VECTOR ( 'NONE', #151, 1000.000000000000000 ) ;
#348 = LINE ( 'NONE', #159, #355 ) ;
#349 = VECTOR ( 'NONE', #158, 1000.000000000000000 ) ;
#350 = CIRCLE ( 'NONE', #219, 2.500000000000002200 ) ;
#351 = LINE ( 'NONE', #152, #353 ) ;
#352 = CIRCLE ( 'NONE', #190, 2.500000000000000400 ) ;
#353 = VECTOR ( 'NONE', #160, 1000.000000000000000 ) ;
#354 = LINE ( 'NONE', #163, #359 ) ;
#355 = VECTOR ( 'NONE', #162, 1000.000000000000000 ) ;
#356 = VECTOR ( 'NONE', #170, 1000.000000000000000 ) ;
#357 = VECTOR ( 'NONE', #164, 1000.000000000000000 ) ;
#358 = LINE ( 'NONE', #169, #356 ) ;
#359 = VECTOR ( 'NONE', #166, 1000.000000000000000 ) ;
#360 = FACE_OUTER_BOUND ( 'NONE', #296, .T. ) ;
#361 = CYLINDRICAL_SURFACE ( 'NONE', #225, 2.500000000000000400 ) ;
#362 = CYLINDRICAL_SURFACE ( 'NONE', #228, 2.500000000000002200 ) ;
#363 = CIRCLE ( 'NONE', #217, 2.500000000000000400 ) ;
#364 = LINE ( 'NONE', #171, #365 ) ;
#365 = VECTOR ( 'NONE', #172, 1000.000000000000000 ) ;
#366 = LINE ( 'NONE', #174, #367 ) ;
#367 = VECTOR ( 'NONE', #175, 1000.000000000000000 ) ;
#368 = FACE_OUTER_BOUND ( 'NONE', #280, .T. ) ;
#369 = SURFACE_STYLE_FILL_AREA ( #253 ) ;
#370 = FACE_OUTER_BOUND ( 'NONE', #274, .T. ) ;
#371 = SURFACE_STYLE_FILL_AREA ( #1 ) ;
#372 = COLOUR_RGB ( '',0.7921568627450980000, 0.8196078431372548800, 0.9333333333333333500 ) ;
#373 = PRESENTATION_STYLE_ASSIGNMENT (( #254 ) ) ;
#374 = STYLED_ITEM ( 'NONE', ( #373 ), #256 ) ;
#375 =( GEOMETRIC_REPRESENTATION_CONTEXT ( 3 ) GLOBAL_UNCERTAINTY_ASSIGNED_CONTEXT ( ( #266 ) ) GLOBAL_UNIT_ASSIGNED_CONTEXT ( ( #85, #86, #83 ) ) REPRESENTATION_CONTEXT ( 'NONE', 'WORKASPACE' ) );
#376 = FACE_OUTER_BOUND ( 'NONE', #82, .T. ) ;
#377 = CYLINDRICAL_SURFACE ( 'NONE', #231, 2.500000000000002200 ) ;
#378 = SURFACE_STYLE_FILL_AREA ( #16 ) ;
#379 = COLOUR_RGB ( '',0.7921568627450980000, 0.8196078431372548800, 0.9333333333333333500 ) ;
#380 = PRESENTATION_STYLE_ASSIGNMENT (( #6 ) ) ;
#381 = STYLED_ITEM ( 'NONE', ( #380 ), #257 ) ;
#382 =( GEOMETRIC_REPRESENTATION_CONTEXT ( 3 ) GLOBAL_UNCERTAINTY_ASSIGNED_CONTEXT ( ( #267 ) ) GLOBAL_UNIT_ASSIGNED_CONTEXT ( ( #7, #8, #9 ) ) REPRESENTATION_CONTEXT ( 'NONE', 'WORKASPACE' ) );
#383 = FACE_OUTER_BOUND ( 'NONE', #80, .T. ) ;
#384 = FACE_OUTER_BOUND ( 'NONE', #292, .T. ) ;
#385 = FACE_OUTER_BOUND ( 'NONE', #275, .T. ) ;
#386 = COLOUR_RGB ( '',0.7921568627450980000, 0.8196078431372548800, 0.9333333333333333500 ) ;
#387 = PRESENTATION_STYLE_ASSIGNMENT (( #18 ) ) ;
#388 = STYLED_ITEM ( 'NONE', ( #387 ), #258 ) ;
#389 =( GEOMETRIC_REPRESENTATION_CONTEXT ( 3 ) GLOBAL_UNCERTAINTY_ASSIGNED_CONTEXT ( ( #268 ) ) GLOBAL_UNIT_ASSIGNED_CONTEXT ( ( #19, #20, #21 ) ) REPRESENTATION_CONTEXT ( 'NONE', 'WORKASPACE' ) );
#390 = FACE_BOUND ( 'NONE', #79, .T. ) ;
#391 = SURFACE_STYLE_FILL_AREA ( #34 ) ;
#392 = COLOUR_RGB ( '',0.7921568627450980000, 0.8196078431372548800, 0.9333333333333333500 ) ;
#393 = FACE_OUTER_BOUND ( 'NONE', #291, .T. ) ;
#394 = FACE_BOUND ( 'NONE', #293, .T. ) ;
#395 = FACE_OUTER_BOUND ( 'NONE', #298, .T. ) ;
#396 = CYLINDRICAL_SURFACE ( 'NONE', #235, 2.500000000000000400 ) ;
#397 = COLOUR_RGB ( '',0.7921568627450980000, 0.8196078431372548800, 0.9333333333333333500 ) ;
#398 = PRESENTATION_STYLE_ASSIGNMENT (( #36 ) ) ;
#399 = STYLED_ITEM ( 'NONE', ( #398 ), #261 ) ;
#400 =( GEOMETRIC_REPRESENTATION_CONTEXT ( 3 ) GLOBAL_UNCERTAINTY_ASSIGNED_CONTEXT ( ( #269 ) ) GLOBAL_UNIT_ASSIGNED_CONTEXT ( ( #37, #38, #39 ) ) REPRESENTATION_CONTEXT ( 'NONE', 'WORKASPACE' ) );
#401 = FACE_BOUND ( 'NONE', #279, .T. ) ;
#402 = PRESENTATION_STYLE_ASSIGNMENT (( #57 ) ) ;
#403 = FACE_BOUND ( 'NONE', #297, .T. ) ;
#404 = FACE_OUTER_BOUND ( 'NONE', #276, .T. ) ;
#405 = SURFACE_STYLE_FILL_AREA ( #55 ) ;
#406 = STYLED_ITEM ( 'NONE', ( #402 ), #265 ) ;
#407 =( GEOMETRIC_REPRESENTATION_CONTEXT ( 3 ) GLOBAL_UNCERTAINTY_ASSIGNED_CONTEXT ( ( #270 ) ) GLOBAL_UNIT_ASSIGNED_CONTEXT ( ( #58, #59, #60 ) ) REPRESENTATION_CONTEXT ( 'NONE', 'WORKASPACE' ) );
#408 = SURFACE_STYLE_FILL_AREA ( #54 ) ;
#409 = ORIENTED_EDGE ( 'NONE', *, *, #211, .T. ) ;
#410 = ORIENTED_EDGE ( 'NONE', *, *, #205, .T. ) ;
ENDSEC;
END-ISO-10303-21;
