ISO-10303-21;
HEADER;
/* Generated by software containing ST-Developer
 * from STEP Tools, Inc. (www.steptools.com) 
 */

FILE_DESCRIPTION(
/* description */ (''),
/* implementation_level */ '2;1');

FILE_NAME(
/* name */ 
'G:/02 Phils Documents/02 Hobby/09 Robots/01 ReP_AL_Mower/09 Large Are
a Mower/Metal Parts Step Files/Blade Adapter.step',
/* time_stamp */ '2019-12-08T12:36:49+01:00',
/* author */ (''),
/* organization */ (''),
/* preprocessor_version */ 'ST-DEVELOPER v18',
/* originating_system */ 'Autodesk Translation Framework v8.12.0.6',
/* authorisation */ '');

FILE_SCHEMA (('AUTOMOTIVE_DESIGN { 1 0 10303 214 3 1 1 }'));
ENDSEC;

DATA;
#10=MECHANICAL_DESIGN_GEOMETRIC_PRESENTATION_REPRESENTATION('',(#17),#352);
#11=ITEM_DEFINED_TRANSFORMATION($,$,#172,#190);
#12=(
REPRESENTATION_RELATIONSHIP($,$,#363,#362)
REPRESENTATION_RELATIONSHIP_WITH_TRANSFORMATION(#11)
SHAPE_REPRESENTATION_RELATIONSHIP()
);
#13=CONTEXT_DEPENDENT_SHAPE_REPRESENTATION(#12,#361);
#14=NEXT_ASSEMBLY_USAGE_OCCURRENCE('Blade Adapter:1','Blade Adapter:1',
'Blade Adapter:1',#365,#366,'Blade Adapter:1');
#15=SHAPE_REPRESENTATION_RELATIONSHIP('SRR','None',#363,#16);
#16=ADVANCED_BREP_SHAPE_REPRESENTATION('',(#18),#351);
#17=STYLED_ITEM('',(#376),#18);
#18=MANIFOLD_SOLID_BREP('Body1',#158);
#19=FACE_BOUND('',#48,.T.);
#20=FACE_BOUND('',#49,.T.);
#21=FACE_BOUND('',#50,.T.);
#22=FACE_BOUND('',#52,.T.);
#23=FACE_BOUND('',#53,.T.);
#24=FACE_BOUND('',#54,.T.);
#25=FACE_BOUND('',#58,.T.);
#26=FACE_BOUND('',#60,.T.);
#27=CIRCLE('',#175,25.);
#28=CIRCLE('',#176,3.95);
#29=CIRCLE('',#177,2.117);
#30=CIRCLE('',#178,2.117);
#31=CIRCLE('',#180,25.);
#32=CIRCLE('',#181,25.);
#33=CIRCLE('',#182,2.117);
#34=CIRCLE('',#183,3.95);
#35=CIRCLE('',#184,3.95);
#36=CIRCLE('',#185,2.117);
#37=PLANE('',#174);
#38=PLANE('',#179);
#39=FACE_OUTER_BOUND('',#46,.T.);
#40=FACE_OUTER_BOUND('',#47,.T.);
#41=FACE_OUTER_BOUND('',#51,.T.);
#42=FACE_OUTER_BOUND('',#55,.T.);
#43=FACE_OUTER_BOUND('',#56,.T.);
#44=FACE_OUTER_BOUND('',#57,.T.);
#45=FACE_OUTER_BOUND('',#59,.T.);
#46=EDGE_LOOP('',(#108,#109,#110,#111,#112,#113));
#47=EDGE_LOOP('',(#114));
#48=EDGE_LOOP('',(#115));
#49=EDGE_LOOP('',(#116));
#50=EDGE_LOOP('',(#117));
#51=EDGE_LOOP('',(#118,#119));
#52=EDGE_LOOP('',(#120));
#53=EDGE_LOOP('',(#121,#122));
#54=EDGE_LOOP('',(#123));
#55=EDGE_LOOP('',(#124,#125,#126,#127));
#56=EDGE_LOOP('',(#128,#129,#130,#131));
#57=EDGE_LOOP('',(#132,#133,#134,#135,#136));
#58=EDGE_LOOP('',(#137,#138));
#59=EDGE_LOOP('',(#139,#140,#141,#142,#143));
#60=EDGE_LOOP('',(#144,#145));
#61=LINE('',#278,#66);
#62=LINE('',#339,#67);
#63=LINE('',#341,#68);
#64=LINE('',#343,#69);
#65=LINE('',#345,#70);
#66=VECTOR('',#197,2.5);
#67=VECTOR('',#224,2.25);
#68=VECTOR('',#227,2.25);
#69=VECTOR('',#230,3.95);
#70=VECTOR('',#233,25.);
#71=B_SPLINE_CURVE_WITH_KNOTS('',3,(#241,#242,#243,#244,#245,#246,#247,
#248,#249,#250,#251,#252,#253,#254,#255,#256,#257,#258),.UNSPECIFIED.,.F.,
 .F.,(4,2,2,2,2,2,2,2,4),(0.,0.0818163733152599,0.16363274663052,0.245141679412592,
0.326650612194665,0.408159544976737,0.48966847775881,0.57148485107407,0.65330122438933),
 .UNSPECIFIED.);
#72=B_SPLINE_CURVE_WITH_KNOTS('',3,(#259,#260,#261,#262,#263,#264,#265,
#266,#267,#268,#269,#270,#271,#272,#273,#274,#275,#276),.UNSPECIFIED.,.F.,
 .F.,(4,2,2,2,2,2,2,2,4),(0.65330122438933,0.73511759770459,0.816933971019849,
0.898442903801922,0.979951836583994,1.06146076936607,1.14296970214814,1.2247860754634,
1.30660244877866),.UNSPECIFIED.);
#73=B_SPLINE_CURVE_WITH_KNOTS('',3,(#280,#281,#282,#283,#284,#285,#286,
#287,#288,#289,#290,#291,#292,#293,#294,#295,#296,#297),.UNSPECIFIED.,.F.,
 .F.,(4,2,2,2,2,2,2,2,4),(0.,0.079785647691332,0.159571295382664,0.239356803805356,
0.319142312228047,0.398927820650739,0.478713329073431,0.558498976764763,
0.638284624456095),.UNSPECIFIED.);
#74=B_SPLINE_CURVE_WITH_KNOTS('',3,(#298,#299,#300,#301,#302,#303,#304,
#305,#306,#307,#308,#309,#310,#311,#312,#313,#314,#315),.UNSPECIFIED.,.F.,
 .F.,(4,2,2,2,2,2,2,2,4),(0.638284624456095,0.718070272147427,0.797855919838759,
0.87764142826145,0.957426936684142,1.03721244510683,1.11699795352953,1.19678360122086,
1.27656924891219),.UNSPECIFIED.);
#75=VERTEX_POINT('',#239);
#76=VERTEX_POINT('',#240);
#77=VERTEX_POINT('',#277);
#78=VERTEX_POINT('',#279);
#79=VERTEX_POINT('',#317);
#80=VERTEX_POINT('',#319);
#81=VERTEX_POINT('',#321);
#82=VERTEX_POINT('',#323);
#83=VERTEX_POINT('',#326);
#84=VERTEX_POINT('',#327);
#85=VERTEX_POINT('',#330);
#86=VERTEX_POINT('',#332);
#87=VERTEX_POINT('',#333);
#88=VERTEX_POINT('',#336);
#89=EDGE_CURVE('',#75,#76,#71,.T.);
#90=EDGE_CURVE('',#76,#75,#72,.T.);
#91=EDGE_CURVE('',#76,#77,#61,.T.);
#92=EDGE_CURVE('',#78,#77,#73,.T.);
#93=EDGE_CURVE('',#77,#78,#74,.T.);
#94=EDGE_CURVE('',#79,#79,#27,.T.);
#95=EDGE_CURVE('',#80,#80,#28,.T.);
#96=EDGE_CURVE('',#81,#81,#29,.T.);
#97=EDGE_CURVE('',#82,#82,#30,.T.);
#98=EDGE_CURVE('',#83,#84,#31,.T.);
#99=EDGE_CURVE('',#84,#83,#32,.T.);
#100=EDGE_CURVE('',#85,#85,#33,.F.);
#101=EDGE_CURVE('',#86,#87,#34,.T.);
#102=EDGE_CURVE('',#87,#86,#35,.T.);
#103=EDGE_CURVE('',#88,#88,#36,.F.);
#104=EDGE_CURVE('',#85,#82,#62,.T.);
#105=EDGE_CURVE('',#88,#81,#63,.T.);
#106=EDGE_CURVE('',#87,#80,#64,.T.);
#107=EDGE_CURVE('',#84,#79,#65,.T.);
#108=ORIENTED_EDGE('',*,*,#89,.F.);
#109=ORIENTED_EDGE('',*,*,#90,.F.);
#110=ORIENTED_EDGE('',*,*,#91,.T.);
#111=ORIENTED_EDGE('',*,*,#92,.F.);
#112=ORIENTED_EDGE('',*,*,#93,.F.);
#113=ORIENTED_EDGE('',*,*,#91,.F.);
#114=ORIENTED_EDGE('',*,*,#94,.T.);
#115=ORIENTED_EDGE('',*,*,#95,.T.);
#116=ORIENTED_EDGE('',*,*,#96,.T.);
#117=ORIENTED_EDGE('',*,*,#97,.T.);
#118=ORIENTED_EDGE('',*,*,#98,.T.);
#119=ORIENTED_EDGE('',*,*,#99,.T.);
#120=ORIENTED_EDGE('',*,*,#100,.T.);
#121=ORIENTED_EDGE('',*,*,#101,.T.);
#122=ORIENTED_EDGE('',*,*,#102,.T.);
#123=ORIENTED_EDGE('',*,*,#103,.T.);
#124=ORIENTED_EDGE('',*,*,#100,.F.);
#125=ORIENTED_EDGE('',*,*,#104,.T.);
#126=ORIENTED_EDGE('',*,*,#97,.F.);
#127=ORIENTED_EDGE('',*,*,#104,.F.);
#128=ORIENTED_EDGE('',*,*,#103,.F.);
#129=ORIENTED_EDGE('',*,*,#105,.T.);
#130=ORIENTED_EDGE('',*,*,#96,.F.);
#131=ORIENTED_EDGE('',*,*,#105,.F.);
#132=ORIENTED_EDGE('',*,*,#101,.F.);
#133=ORIENTED_EDGE('',*,*,#102,.F.);
#134=ORIENTED_EDGE('',*,*,#106,.T.);
#135=ORIENTED_EDGE('',*,*,#95,.F.);
#136=ORIENTED_EDGE('',*,*,#106,.F.);
#137=ORIENTED_EDGE('',*,*,#89,.T.);
#138=ORIENTED_EDGE('',*,*,#90,.T.);
#139=ORIENTED_EDGE('',*,*,#98,.F.);
#140=ORIENTED_EDGE('',*,*,#99,.F.);
#141=ORIENTED_EDGE('',*,*,#107,.T.);
#142=ORIENTED_EDGE('',*,*,#94,.F.);
#143=ORIENTED_EDGE('',*,*,#107,.F.);
#144=ORIENTED_EDGE('',*,*,#92,.T.);
#145=ORIENTED_EDGE('',*,*,#93,.T.);
#146=CYLINDRICAL_SURFACE('',#173,2.117);
#147=CYLINDRICAL_SURFACE('',#186,2.117);
#148=CYLINDRICAL_SURFACE('',#187,2.117);
#149=CYLINDRICAL_SURFACE('',#188,3.95);
#150=CYLINDRICAL_SURFACE('',#189,25.);
#151=ADVANCED_FACE('',(#39),#146,.F.);
#152=ADVANCED_FACE('',(#40,#19,#20,#21),#37,.F.);
#153=ADVANCED_FACE('',(#41,#22,#23,#24),#38,.T.);
#154=ADVANCED_FACE('',(#42),#147,.F.);
#155=ADVANCED_FACE('',(#43),#148,.F.);
#156=ADVANCED_FACE('',(#44,#25),#149,.F.);
#157=ADVANCED_FACE('',(#45,#26),#150,.T.);
#158=CLOSED_SHELL('',(#151,#152,#153,#154,#155,#156,#157));
#159=DERIVED_UNIT_ELEMENT(#161,1.);
#160=DERIVED_UNIT_ELEMENT(#354,3.);
#161=(
MASS_UNIT()
NAMED_UNIT(*)
SI_UNIT(.KILO.,.GRAM.)
);
#162=DERIVED_UNIT((#159,#160));
#163=MEASURE_REPRESENTATION_ITEM('density measure',
POSITIVE_RATIO_MEASURE(7850.),#162);
#164=PROPERTY_DEFINITION_REPRESENTATION(#169,#166);
#165=PROPERTY_DEFINITION_REPRESENTATION(#170,#167);
#166=REPRESENTATION('material name',(#168),#351);
#167=REPRESENTATION('density',(#163),#351);
#168=DESCRIPTIVE_REPRESENTATION_ITEM('Steel','Steel');
#169=PROPERTY_DEFINITION('material property','material name',#366);
#170=PROPERTY_DEFINITION('material property','density of part',#366);
#171=AXIS2_PLACEMENT_3D('placement',#236,#191,#192);
#172=AXIS2_PLACEMENT_3D('placement',#237,#193,#194);
#173=AXIS2_PLACEMENT_3D('',#238,#195,#196);
#174=AXIS2_PLACEMENT_3D('',#316,#198,#199);
#175=AXIS2_PLACEMENT_3D('',#318,#200,#201);
#176=AXIS2_PLACEMENT_3D('',#320,#202,#203);
#177=AXIS2_PLACEMENT_3D('',#322,#204,#205);
#178=AXIS2_PLACEMENT_3D('',#324,#206,#207);
#179=AXIS2_PLACEMENT_3D('',#325,#208,#209);
#180=AXIS2_PLACEMENT_3D('',#328,#210,#211);
#181=AXIS2_PLACEMENT_3D('',#329,#212,#213);
#182=AXIS2_PLACEMENT_3D('',#331,#214,#215);
#183=AXIS2_PLACEMENT_3D('',#334,#216,#217);
#184=AXIS2_PLACEMENT_3D('',#335,#218,#219);
#185=AXIS2_PLACEMENT_3D('',#337,#220,#221);
#186=AXIS2_PLACEMENT_3D('',#338,#222,#223);
#187=AXIS2_PLACEMENT_3D('',#340,#225,#226);
#188=AXIS2_PLACEMENT_3D('',#342,#228,#229);
#189=AXIS2_PLACEMENT_3D('',#344,#231,#232);
#190=AXIS2_PLACEMENT_3D('',#346,#234,#235);
#191=DIRECTION('axis',(0.,0.,1.));
#192=DIRECTION('refdir',(1.,0.,0.));
#193=DIRECTION('axis',(0.,0.,1.));
#194=DIRECTION('refdir',(1.,0.,0.));
#195=DIRECTION('center_axis',(0.,0.,1.));
#196=DIRECTION('ref_axis',(1.,0.,0.));
#197=DIRECTION('',(0.,0.,1.));
#198=DIRECTION('center_axis',(0.,1.,0.));
#199=DIRECTION('ref_axis',(1.,0.,0.));
#200=DIRECTION('center_axis',(0.,-1.,0.));
#201=DIRECTION('ref_axis',(1.,0.,0.));
#202=DIRECTION('center_axis',(0.,1.,0.));
#203=DIRECTION('ref_axis',(1.,0.,0.));
#204=DIRECTION('center_axis',(0.,1.,0.));
#205=DIRECTION('ref_axis',(1.,0.,0.));
#206=DIRECTION('center_axis',(0.,1.,0.));
#207=DIRECTION('ref_axis',(1.,0.,0.));
#208=DIRECTION('center_axis',(0.,1.,0.));
#209=DIRECTION('ref_axis',(-1.,0.,0.));
#210=DIRECTION('center_axis',(0.,1.,0.));
#211=DIRECTION('ref_axis',(-1.,0.,0.));
#212=DIRECTION('center_axis',(0.,1.,0.));
#213=DIRECTION('ref_axis',(-1.,0.,0.));
#214=DIRECTION('center_axis',(0.,1.,0.));
#215=DIRECTION('ref_axis',(1.,0.,0.));
#216=DIRECTION('center_axis',(0.,-1.,0.));
#217=DIRECTION('ref_axis',(-1.,0.,0.));
#218=DIRECTION('center_axis',(0.,-1.,0.));
#219=DIRECTION('ref_axis',(-1.,0.,0.));
#220=DIRECTION('center_axis',(0.,1.,0.));
#221=DIRECTION('ref_axis',(1.,0.,0.));
#222=DIRECTION('center_axis',(0.,1.,0.));
#223=DIRECTION('ref_axis',(1.,0.,0.));
#224=DIRECTION('',(0.,-1.,0.));
#225=DIRECTION('center_axis',(0.,1.,0.));
#226=DIRECTION('ref_axis',(1.,0.,0.));
#227=DIRECTION('',(0.,-1.,0.));
#228=DIRECTION('center_axis',(0.,1.,0.));
#229=DIRECTION('ref_axis',(1.,0.,0.));
#230=DIRECTION('',(0.,-1.,0.));
#231=DIRECTION('center_axis',(0.,1.,0.));
#232=DIRECTION('ref_axis',(1.,0.,0.));
#233=DIRECTION('',(0.,-1.,0.));
#234=DIRECTION('',(0.,0.,1.));
#235=DIRECTION('',(1.,0.,0.));
#236=CARTESIAN_POINT('',(0.,0.,0.));
#237=CARTESIAN_POINT('',(0.,0.,0.));
#238=CARTESIAN_POINT('Origin',(0.,8.00000011920929,0.));
#239=CARTESIAN_POINT('',(2.117,8.00000011920929,3.33478799925872));
#240=CARTESIAN_POINT('',(-2.117,8.00000011920929,3.33478799925872));
#241=CARTESIAN_POINT('Ctrl Pts',(2.117,8.00000011920929,3.33478799925872));
#242=CARTESIAN_POINT('Ctrl Pts',(2.117,8.27272136359349,3.33478799925872));
#243=CARTESIAN_POINT('Ctrl Pts',(2.06133342176379,8.55838818556541,3.37180271376639));
#244=CARTESIAN_POINT('Ctrl Pts',(1.84385361222228,9.07754305066523,3.49547580320362));
#245=CARTESIAN_POINT('Ctrl Pts',(1.68217818766291,9.31171204309022,3.57950305334965));
#246=CARTESIAN_POINT('Ctrl Pts',(1.31240797248984,9.68148225826329,3.73093156404189));
#247=CARTESIAN_POINT('Ctrl Pts',(1.07801783821761,9.8436602367046,3.80933778664988));
#248=CARTESIAN_POINT('Ctrl Pts',(0.55783955297372,10.0615578696037,3.91943770469962));
#249=CARTESIAN_POINT('Ctrl Pts',(0.271696442606908,10.1170001192093,3.95));
#250=CARTESIAN_POINT('Ctrl Pts',(-0.271696442606909,10.1170001192093,3.95));
#251=CARTESIAN_POINT('Ctrl Pts',(-0.557839552973719,10.0615578696037,3.91943770469963));
#252=CARTESIAN_POINT('Ctrl Pts',(-1.07801783821761,9.8436602367046,3.80933778664988));
#253=CARTESIAN_POINT('Ctrl Pts',(-1.31240797248984,9.68148225826329,3.73093156404189));
#254=CARTESIAN_POINT('Ctrl Pts',(-1.68217818766291,9.31171204309022,3.57950305334965));
#255=CARTESIAN_POINT('Ctrl Pts',(-1.84385361222228,9.07754305066523,3.49547580320362));
#256=CARTESIAN_POINT('Ctrl Pts',(-2.06133342176379,8.55838818556541,3.37180271376639));
#257=CARTESIAN_POINT('Ctrl Pts',(-2.117,8.27272136359349,3.33478799925872));
#258=CARTESIAN_POINT('Ctrl Pts',(-2.117,8.00000011920929,3.33478799925872));
#259=CARTESIAN_POINT('Ctrl Pts',(-2.117,8.00000011920929,3.33478799925872));
#260=CARTESIAN_POINT('Ctrl Pts',(-2.117,7.72727887482509,3.33478799925872));
#261=CARTESIAN_POINT('Ctrl Pts',(-2.06133342176379,7.44161205285317,3.37180271376639));
#262=CARTESIAN_POINT('Ctrl Pts',(-1.84385361222228,6.92245718775334,3.49547580320362));
#263=CARTESIAN_POINT('Ctrl Pts',(-1.68217818766291,6.68828819532836,3.57950305334965));
#264=CARTESIAN_POINT('Ctrl Pts',(-1.31240797248984,6.31851798015529,3.73093156404189));
#265=CARTESIAN_POINT('Ctrl Pts',(-1.07801783821761,6.15634000171398,3.80933778664988));
#266=CARTESIAN_POINT('Ctrl Pts',(-0.557839552973719,5.93844236881491,3.91943770469963));
#267=CARTESIAN_POINT('Ctrl Pts',(-0.271696442606908,5.88300011920929,3.95));
#268=CARTESIAN_POINT('Ctrl Pts',(0.271696442606908,5.88300011920929,3.95));
#269=CARTESIAN_POINT('Ctrl Pts',(0.557839552973719,5.93844236881491,3.91943770469962));
#270=CARTESIAN_POINT('Ctrl Pts',(1.07801783821761,6.15634000171398,3.80933778664988));
#271=CARTESIAN_POINT('Ctrl Pts',(1.31240797248984,6.31851798015529,3.73093156404189));
#272=CARTESIAN_POINT('Ctrl Pts',(1.68217818766291,6.68828819532836,3.57950305334965));
#273=CARTESIAN_POINT('Ctrl Pts',(1.84385361222228,6.92245718775334,3.49547580320362));
#274=CARTESIAN_POINT('Ctrl Pts',(2.06133342176379,7.44161205285317,3.37180271376639));
#275=CARTESIAN_POINT('Ctrl Pts',(2.117,7.72727887482509,3.33478799925872));
#276=CARTESIAN_POINT('Ctrl Pts',(2.117,8.00000011920929,3.33478799925872));
#277=CARTESIAN_POINT('',(-2.117,8.00000011920929,24.9102049570051));
#278=CARTESIAN_POINT('',(-2.117,8.00000011920929,0.));
#279=CARTESIAN_POINT('',(2.117,8.00000011920929,24.9102049570051));
#280=CARTESIAN_POINT('Ctrl Pts',(2.117,8.00000011920929,24.9102049570051));
#281=CARTESIAN_POINT('Ctrl Pts',(2.117,7.73404796023818,24.9102049570051));
#282=CARTESIAN_POINT('Ctrl Pts',(2.06382330925016,7.45045611659878,24.9149027423825));
#283=CARTESIAN_POINT('Ctrl Pts',(1.84773616611507,6.92890891589575,24.9318594641107));
#284=CARTESIAN_POINT('Ctrl Pts',(1.68483269003068,6.69094269769612,24.9438723456154));
#285=CARTESIAN_POINT('Ctrl Pts',(1.30905774947761,6.31516775714305,24.9664133682154));
#286=CARTESIAN_POINT('Ctrl Pts',(1.07109138651023,6.1522640264872,24.9784074303404));
#287=CARTESIAN_POINT('Ctrl Pts',(0.549543705473972,5.93617668935866,24.9953210867377));
#288=CARTESIAN_POINT('Ctrl Pts',(0.265951694742305,5.88300011920929,25.));
#289=CARTESIAN_POINT('Ctrl Pts',(-0.265951694742306,5.88300011920929,25.));
#290=CARTESIAN_POINT('Ctrl Pts',(-0.549543705473973,5.93617668935866,24.9953210867377));
#291=CARTESIAN_POINT('Ctrl Pts',(-1.07109138651023,6.1522640264872,24.9784074303404));
#292=CARTESIAN_POINT('Ctrl Pts',(-1.30905774947761,6.31516775714305,24.9664133682154));
#293=CARTESIAN_POINT('Ctrl Pts',(-1.68483269003068,6.69094269769612,24.9438723456154));
#294=CARTESIAN_POINT('Ctrl Pts',(-1.84773616611507,6.92890891589575,24.9318594641107));
#295=CARTESIAN_POINT('Ctrl Pts',(-2.06382330925016,7.45045611659878,24.9149027423825));
#296=CARTESIAN_POINT('Ctrl Pts',(-2.117,7.73404796023818,24.9102049570051));
#297=CARTESIAN_POINT('Ctrl Pts',(-2.117,8.00000011920929,24.9102049570051));
#298=CARTESIAN_POINT('Ctrl Pts',(-2.117,8.00000011920929,24.9102049570051));
#299=CARTESIAN_POINT('Ctrl Pts',(-2.117,8.2659522781804,24.9102049570051));
#300=CARTESIAN_POINT('Ctrl Pts',(-2.06382330925016,8.5495441218198,24.9149027423825));
#301=CARTESIAN_POINT('Ctrl Pts',(-1.84773616611507,9.07109132252283,24.9318594641107));
#302=CARTESIAN_POINT('Ctrl Pts',(-1.68483269003068,9.30905754072245,24.9438723456154));
#303=CARTESIAN_POINT('Ctrl Pts',(-1.30905774947761,9.68483248127553,24.9664133682154));
#304=CARTESIAN_POINT('Ctrl Pts',(-1.07109138651023,9.84773621193138,24.9784074303404));
#305=CARTESIAN_POINT('Ctrl Pts',(-0.549543705473973,10.0638235490599,24.9953210867377));
#306=CARTESIAN_POINT('Ctrl Pts',(-0.265951694742306,10.1170001192093,25.));
#307=CARTESIAN_POINT('Ctrl Pts',(0.265951694742306,10.1170001192093,25.));
#308=CARTESIAN_POINT('Ctrl Pts',(0.549543705473973,10.0638235490599,24.9953210867377));
#309=CARTESIAN_POINT('Ctrl Pts',(1.07109138651023,9.84773621193138,24.9784074303404));
#310=CARTESIAN_POINT('Ctrl Pts',(1.30905774947761,9.68483248127553,24.9664133682154));
#311=CARTESIAN_POINT('Ctrl Pts',(1.68483269003068,9.30905754072245,24.9438723456154));
#312=CARTESIAN_POINT('Ctrl Pts',(1.84773616611507,9.07109132252283,24.9318594641107));
#313=CARTESIAN_POINT('Ctrl Pts',(2.06382330925016,8.5495441218198,24.9149027423825));
#314=CARTESIAN_POINT('Ctrl Pts',(2.117,8.2659522781804,24.9102049570051));
#315=CARTESIAN_POINT('Ctrl Pts',(2.117,8.00000011920929,24.9102049570051));
#316=CARTESIAN_POINT('Origin',(0.,2.,0.));
#317=CARTESIAN_POINT('',(-25.,2.,3.06161699786838E-15));
#318=CARTESIAN_POINT('Origin',(0.,2.,0.));
#319=CARTESIAN_POINT('',(-3.95,2.,4.83735485663205E-16));
#320=CARTESIAN_POINT('Origin',(0.,2.,0.));
#321=CARTESIAN_POINT('',(-12.117,2.,2.59257727379495E-16));
#322=CARTESIAN_POINT('Origin',(-10.,2.,0.));
#323=CARTESIAN_POINT('',(7.883,2.,2.59257727379495E-16));
#324=CARTESIAN_POINT('Origin',(10.,2.,0.));
#325=CARTESIAN_POINT('Origin',(0.,14.,0.));
#326=CARTESIAN_POINT('',(25.,14.,-3.06161699786838E-15));
#327=CARTESIAN_POINT('',(-25.,14.,3.06161699786838E-15));
#328=CARTESIAN_POINT('Origin',(0.,14.,0.));
#329=CARTESIAN_POINT('Origin',(0.,14.,0.));
#330=CARTESIAN_POINT('',(7.883,14.,2.59257727379495E-16));
#331=CARTESIAN_POINT('Origin',(10.,14.,0.));
#332=CARTESIAN_POINT('',(3.95,14.,-4.83735485663205E-16));
#333=CARTESIAN_POINT('',(-3.95,14.,4.83735485663205E-16));
#334=CARTESIAN_POINT('Origin',(0.,14.,0.));
#335=CARTESIAN_POINT('Origin',(0.,14.,0.));
#336=CARTESIAN_POINT('',(-12.117,14.,2.59257727379495E-16));
#337=CARTESIAN_POINT('Origin',(-10.,14.,0.));
#338=CARTESIAN_POINT('Origin',(10.,0.,0.));
#339=CARTESIAN_POINT('',(7.883,0.,2.59257727379495E-16));
#340=CARTESIAN_POINT('Origin',(-10.,0.,0.));
#341=CARTESIAN_POINT('',(-12.117,0.,2.59257727379495E-16));
#342=CARTESIAN_POINT('Origin',(0.,0.,0.));
#343=CARTESIAN_POINT('',(-3.95,0.,4.83735485663205E-16));
#344=CARTESIAN_POINT('Origin',(0.,0.,0.));
#345=CARTESIAN_POINT('',(-25.,0.,3.06161699786838E-15));
#346=CARTESIAN_POINT('',(0.,0.,0.));
#347=UNCERTAINTY_MEASURE_WITH_UNIT(LENGTH_MEASURE(0.01),#353,
'DISTANCE_ACCURACY_VALUE',
'Maximum model space distance between geometric entities at asserted c
onnectivities');
#348=UNCERTAINTY_MEASURE_WITH_UNIT(LENGTH_MEASURE(0.01),#353,
'DISTANCE_ACCURACY_VALUE',
'Maximum model space distance between geometric entities at asserted c
onnectivities');
#349=UNCERTAINTY_MEASURE_WITH_UNIT(LENGTH_MEASURE(0.01),#353,
'DISTANCE_ACCURACY_VALUE',
'Maximum model space distance between geometric entities at asserted c
onnectivities');
#350=(
GEOMETRIC_REPRESENTATION_CONTEXT(3)
GLOBAL_UNCERTAINTY_ASSIGNED_CONTEXT((#347))
GLOBAL_UNIT_ASSIGNED_CONTEXT((#353,#355,#356))
REPRESENTATION_CONTEXT('','3D')
);
#351=(
GEOMETRIC_REPRESENTATION_CONTEXT(3)
GLOBAL_UNCERTAINTY_ASSIGNED_CONTEXT((#348))
GLOBAL_UNIT_ASSIGNED_CONTEXT((#353,#355,#356))
REPRESENTATION_CONTEXT('','3D')
);
#352=(
GEOMETRIC_REPRESENTATION_CONTEXT(3)
GLOBAL_UNCERTAINTY_ASSIGNED_CONTEXT((#349))
GLOBAL_UNIT_ASSIGNED_CONTEXT((#353,#355,#356))
REPRESENTATION_CONTEXT('','3D')
);
#353=(
LENGTH_UNIT()
NAMED_UNIT(*)
SI_UNIT(.MILLI.,.METRE.)
);
#354=(
LENGTH_UNIT()
NAMED_UNIT(*)
SI_UNIT($,.METRE.)
);
#355=(
NAMED_UNIT(*)
PLANE_ANGLE_UNIT()
SI_UNIT($,.RADIAN.)
);
#356=(
NAMED_UNIT(*)
SI_UNIT($,.STERADIAN.)
SOLID_ANGLE_UNIT()
);
#357=SHAPE_DEFINITION_REPRESENTATION(#359,#362);
#358=SHAPE_DEFINITION_REPRESENTATION(#360,#363);
#359=PRODUCT_DEFINITION_SHAPE('',$,#365);
#360=PRODUCT_DEFINITION_SHAPE('',$,#366);
#361=PRODUCT_DEFINITION_SHAPE($,$,#14);
#362=SHAPE_REPRESENTATION('',(#171,#190),#350);
#363=SHAPE_REPRESENTATION('',(#172),#351);
#364=PRODUCT_DEFINITION_CONTEXT('part definition',#372,'design');
#365=PRODUCT_DEFINITION('Blade Adapter','Blade Adapter v1',#367,#364);
#366=PRODUCT_DEFINITION('Blade Adapter_1','Blade Adapter',#368,#364);
#367=PRODUCT_DEFINITION_FORMATION('',$,#374);
#368=PRODUCT_DEFINITION_FORMATION('',$,#375);
#369=PRODUCT_RELATED_PRODUCT_CATEGORY('Blade Adapter v1',
'Blade Adapter v1',(#374));
#370=PRODUCT_RELATED_PRODUCT_CATEGORY('Blade Adapter','Blade Adapter',(#375));
#371=APPLICATION_PROTOCOL_DEFINITION('international standard',
'automotive_design',2009,#372);
#372=APPLICATION_CONTEXT(
'Core Data for Automotive Mechanical Design Process');
#373=PRODUCT_CONTEXT('part definition',#372,'mechanical');
#374=PRODUCT('Blade Adapter','Blade Adapter v1',$,(#373));
#375=PRODUCT('Blade Adapter_1','Blade Adapter',$,(#373));
#376=PRESENTATION_STYLE_ASSIGNMENT((#377));
#377=SURFACE_STYLE_USAGE(.BOTH.,#378);
#378=SURFACE_SIDE_STYLE('',(#379));
#379=SURFACE_STYLE_FILL_AREA(#380);
#380=FILL_AREA_STYLE('Steel - Satin',(#381));
#381=FILL_AREA_STYLE_COLOUR('Steel - Satin',#382);
#382=COLOUR_RGB('Steel - Satin',0.627450980392157,0.627450980392157,0.627450980392157);
ENDSEC;
END-ISO-10303-21;
