ISO-10303-21;
HEADER;
/* Generated by software containing ST-Developer
 * from STEP Tools, Inc. (www.steptools.com) 
 */

FILE_DESCRIPTION(
/* description */ (''),
/* implementation_level */ '2;1');

FILE_NAME(
/* name */ 
'G:/02 Phils Documents/02 Hobby/09 Robots/01 ReP_AL_Mower/09 Large Are
a Mower/Metal Parts Step Files/Wheel Axel.step',
/* time_stamp */ '2019-12-08T12:32:11+01:00',
/* author */ (''),
/* organization */ (''),
/* preprocessor_version */ 'ST-DEVELOPER v18',
/* originating_system */ 'Autodesk Translation Framework v8.12.0.6',
/* authorisation */ '');

FILE_SCHEMA (('AUTOMOTIVE_DESIGN { 1 0 10303 214 3 1 1 }'));
ENDSEC;

DATA;
#10=MECHANICAL_DESIGN_GEOMETRIC_PRESENTATION_REPRESENTATION('',(#17),#359);
#11=ITEM_DEFINED_TRANSFORMATION($,$,#141,#153);
#12=(
REPRESENTATION_RELATIONSHIP($,$,#370,#369)
REPRESENTATION_RELATIONSHIP_WITH_TRANSFORMATION(#11)
SHAPE_REPRESENTATION_RELATIONSHIP()
);
#13=CONTEXT_DEPENDENT_SHAPE_REPRESENTATION(#12,#368);
#14=NEXT_ASSEMBLY_USAGE_OCCURRENCE('Wheel Axel:1','Wheel Axel:1',
'Wheel Axel:1',#372,#373,'Wheel Axel:1');
#15=SHAPE_REPRESENTATION_RELATIONSHIP('SRR','None',#370,#16);
#16=ADVANCED_BREP_SHAPE_REPRESENTATION('',(#18),#358);
#17=STYLED_ITEM('',(#383),#18);
#18=MANIFOLD_SOLID_BREP('Body1',#127);
#19=PLANE('',#147);
#20=PLANE('',#151);
#21=PLANE('',#152);
#22=FACE_BOUND('',#41,.T.);
#23=FACE_BOUND('',#44,.T.);
#24=FACE_BOUND('',#45,.T.);
#25=FACE_BOUND('',#46,.T.);
#26=FACE_BOUND('',#49,.T.);
#27=CIRCLE('',#145,3.);
#28=CIRCLE('',#146,3.);
#29=CIRCLE('',#149,7.5);
#30=CIRCLE('',#150,7.5);
#31=FACE_OUTER_BOUND('',#38,.T.);
#32=FACE_OUTER_BOUND('',#39,.T.);
#33=FACE_OUTER_BOUND('',#40,.T.);
#34=FACE_OUTER_BOUND('',#42,.T.);
#35=FACE_OUTER_BOUND('',#43,.T.);
#36=FACE_OUTER_BOUND('',#47,.T.);
#37=FACE_OUTER_BOUND('',#48,.T.);
#38=EDGE_LOOP('',(#88,#89,#90,#91,#92,#93));
#39=EDGE_LOOP('',(#94,#95,#96,#97));
#40=EDGE_LOOP('',(#98,#99,#100,#101));
#41=EDGE_LOOP('',(#102));
#42=EDGE_LOOP('',(#103));
#43=EDGE_LOOP('',(#104,#105,#106,#107));
#44=EDGE_LOOP('',(#108,#109));
#45=EDGE_LOOP('',(#110,#111));
#46=EDGE_LOOP('',(#112));
#47=EDGE_LOOP('',(#113));
#48=EDGE_LOOP('',(#114));
#49=EDGE_LOOP('',(#115));
#50=LINE('',#228,#54);
#51=LINE('',#303,#55);
#52=LINE('',#342,#56);
#53=LINE('',#349,#57);
#54=VECTOR('',#160,2.5);
#55=VECTOR('',#163,2.);
#56=VECTOR('',#168,3.);
#57=VECTOR('',#177,7.5);
#58=B_SPLINE_CURVE_WITH_KNOTS('',3,(#191,#192,#193,#194,#195,#196,#197,
#198,#199,#200,#201,#202,#203,#204,#205,#206,#207,#208),.UNSPECIFIED.,.F.,
 .F.,(4,2,2,2,2,2,2,2,4),(0.,0.0802262247037318,0.160452449407464,0.24066013488347,
0.320867820359476,0.401075505835483,0.481283191311489,0.561509416015221,
0.641735640718953),.UNSPECIFIED.);
#59=B_SPLINE_CURVE_WITH_KNOTS('',3,(#209,#210,#211,#212,#213,#214,#215,
#216,#217,#218,#219,#220,#221,#222,#223,#224,#225,#226),.UNSPECIFIED.,.F.,
 .F.,(4,2,2,2,2,2,2,2,4),(0.641735640718953,0.721961865422685,0.802188090126417,
0.882395775602423,0.962603461078429,1.04281114655444,1.12301883203044,1.20324505673417,
1.28347128143791),.UNSPECIFIED.);
#60=B_SPLINE_CURVE_WITH_KNOTS('',3,(#230,#231,#232,#233,#234,#235,#236,
#237,#238,#239,#240,#241,#242,#243,#244,#245,#246,#247),.UNSPECIFIED.,.F.,
 .F.,(4,2,2,2,2,2,2,2,4),(0.,0.0802262247037319,0.160452449407464,0.24066013488347,
0.320867820359476,0.401075505835483,0.481283191311489,0.561509416015221,
0.641735640718953),.UNSPECIFIED.);
#61=B_SPLINE_CURVE_WITH_KNOTS('',3,(#248,#249,#250,#251,#252,#253,#254,
#255,#256,#257,#258,#259,#260,#261,#262,#263,#264,#265),.UNSPECIFIED.,.F.,
 .F.,(4,2,2,2,2,2,2,2,4),(0.641735640718953,0.721961865422685,0.802188090126417,
0.882395775602423,0.962603461078429,1.04281114655444,1.12301883203044,1.20324505673417,
1.28347128143791),.UNSPECIFIED.);
#62=B_SPLINE_CURVE_WITH_KNOTS('',3,(#268,#269,#270,#271,#272,#273,#274,
#275,#276,#277,#278,#279,#280,#281,#282,#283,#284,#285,#286,#287,#288,#289,
#290,#291,#292,#293,#294,#295,#296,#297,#298,#299,#300,#301),
 .UNSPECIFIED.,.T.,.F.,(4,2,2,2,2,2,2,2,2,2,2,2,2,2,2,2,4),(0.,0.0645423479987008,
0.129084695997402,0.193340332596706,0.25759596919601,0.321851605795314,
0.386107242394619,0.450649590393319,0.51519193839202,0.579734286390721,
0.644276634389421,0.708532270988726,0.77278790758803,0.837043544187335,
0.901299180786639,0.965841528785339,1.03038387678404),.UNSPECIFIED.);
#63=B_SPLINE_CURVE_WITH_KNOTS('',3,(#304,#305,#306,#307,#308,#309,#310,
#311,#312,#313,#314,#315,#316,#317,#318,#319,#320,#321,#322,#323,#324,#325,
#326,#327,#328,#329,#330,#331,#332,#333,#334,#335,#336,#337),
 .UNSPECIFIED.,.T.,.F.,(4,2,2,2,2,2,2,2,2,2,2,2,2,2,2,2,4),(0.,0.0629854178568302,
0.12597083571366,0.188950834272972,0.251930832832284,0.314910831391595,
0.377890829950907,0.440876247807737,0.503861665664567,0.566847083521397,
0.629832501378227,0.692812499937539,0.75579249849685,0.818772497056162,
0.881752495615474,0.944737913472304,1.00772333132913),.UNSPECIFIED.);
#64=VERTEX_POINT('',#189);
#65=VERTEX_POINT('',#190);
#66=VERTEX_POINT('',#227);
#67=VERTEX_POINT('',#229);
#68=VERTEX_POINT('',#267);
#69=VERTEX_POINT('',#302);
#70=VERTEX_POINT('',#339);
#71=VERTEX_POINT('',#341);
#72=VERTEX_POINT('',#346);
#73=VERTEX_POINT('',#348);
#74=EDGE_CURVE('',#64,#65,#58,.T.);
#75=EDGE_CURVE('',#65,#64,#59,.T.);
#76=EDGE_CURVE('',#65,#66,#50,.T.);
#77=EDGE_CURVE('',#67,#66,#60,.T.);
#78=EDGE_CURVE('',#66,#67,#61,.T.);
#79=EDGE_CURVE('',#68,#68,#62,.F.);
#80=EDGE_CURVE('',#68,#69,#51,.T.);
#81=EDGE_CURVE('',#69,#69,#63,.T.);
#82=EDGE_CURVE('',#70,#70,#27,.T.);
#83=EDGE_CURVE('',#70,#71,#52,.T.);
#84=EDGE_CURVE('',#71,#71,#28,.T.);
#85=EDGE_CURVE('',#72,#72,#29,.T.);
#86=EDGE_CURVE('',#72,#73,#53,.T.);
#87=EDGE_CURVE('',#73,#73,#30,.T.);
#88=ORIENTED_EDGE('',*,*,#74,.F.);
#89=ORIENTED_EDGE('',*,*,#75,.F.);
#90=ORIENTED_EDGE('',*,*,#76,.T.);
#91=ORIENTED_EDGE('',*,*,#77,.F.);
#92=ORIENTED_EDGE('',*,*,#78,.F.);
#93=ORIENTED_EDGE('',*,*,#76,.F.);
#94=ORIENTED_EDGE('',*,*,#79,.F.);
#95=ORIENTED_EDGE('',*,*,#80,.T.);
#96=ORIENTED_EDGE('',*,*,#81,.F.);
#97=ORIENTED_EDGE('',*,*,#80,.F.);
#98=ORIENTED_EDGE('',*,*,#82,.F.);
#99=ORIENTED_EDGE('',*,*,#83,.T.);
#100=ORIENTED_EDGE('',*,*,#84,.T.);
#101=ORIENTED_EDGE('',*,*,#83,.F.);
#102=ORIENTED_EDGE('',*,*,#79,.T.);
#103=ORIENTED_EDGE('',*,*,#84,.F.);
#104=ORIENTED_EDGE('',*,*,#85,.F.);
#105=ORIENTED_EDGE('',*,*,#86,.T.);
#106=ORIENTED_EDGE('',*,*,#87,.T.);
#107=ORIENTED_EDGE('',*,*,#86,.F.);
#108=ORIENTED_EDGE('',*,*,#74,.T.);
#109=ORIENTED_EDGE('',*,*,#75,.T.);
#110=ORIENTED_EDGE('',*,*,#77,.T.);
#111=ORIENTED_EDGE('',*,*,#78,.T.);
#112=ORIENTED_EDGE('',*,*,#81,.T.);
#113=ORIENTED_EDGE('',*,*,#85,.T.);
#114=ORIENTED_EDGE('',*,*,#87,.F.);
#115=ORIENTED_EDGE('',*,*,#82,.T.);
#116=CYLINDRICAL_SURFACE('',#142,2.117);
#117=CYLINDRICAL_SURFACE('',#143,1.666);
#118=CYLINDRICAL_SURFACE('',#144,3.);
#119=CYLINDRICAL_SURFACE('',#148,7.5);
#120=ADVANCED_FACE('',(#31),#116,.F.);
#121=ADVANCED_FACE('',(#32),#117,.F.);
#122=ADVANCED_FACE('',(#33,#22),#118,.F.);
#123=ADVANCED_FACE('',(#34),#19,.F.);
#124=ADVANCED_FACE('',(#35,#23,#24,#25),#119,.T.);
#125=ADVANCED_FACE('',(#36),#20,.T.);
#126=ADVANCED_FACE('',(#37,#26),#21,.F.);
#127=CLOSED_SHELL('',(#120,#121,#122,#123,#124,#125,#126));
#128=DERIVED_UNIT_ELEMENT(#130,1.);
#129=DERIVED_UNIT_ELEMENT(#361,3.);
#130=(
MASS_UNIT()
NAMED_UNIT(*)
SI_UNIT(.KILO.,.GRAM.)
);
#131=DERIVED_UNIT((#128,#129));
#132=MEASURE_REPRESENTATION_ITEM('density measure',
POSITIVE_RATIO_MEASURE(7850.),#131);
#133=PROPERTY_DEFINITION_REPRESENTATION(#138,#135);
#134=PROPERTY_DEFINITION_REPRESENTATION(#139,#136);
#135=REPRESENTATION('material name',(#137),#358);
#136=REPRESENTATION('density',(#132),#358);
#137=DESCRIPTIVE_REPRESENTATION_ITEM('Steel','Steel');
#138=PROPERTY_DEFINITION('material property','material name',#373);
#139=PROPERTY_DEFINITION('material property','density of part',#373);
#140=AXIS2_PLACEMENT_3D('placement',#186,#154,#155);
#141=AXIS2_PLACEMENT_3D('placement',#187,#156,#157);
#142=AXIS2_PLACEMENT_3D('',#188,#158,#159);
#143=AXIS2_PLACEMENT_3D('',#266,#161,#162);
#144=AXIS2_PLACEMENT_3D('',#338,#164,#165);
#145=AXIS2_PLACEMENT_3D('',#340,#166,#167);
#146=AXIS2_PLACEMENT_3D('',#343,#169,#170);
#147=AXIS2_PLACEMENT_3D('',#344,#171,#172);
#148=AXIS2_PLACEMENT_3D('',#345,#173,#174);
#149=AXIS2_PLACEMENT_3D('',#347,#175,#176);
#150=AXIS2_PLACEMENT_3D('',#350,#178,#179);
#151=AXIS2_PLACEMENT_3D('',#351,#180,#181);
#152=AXIS2_PLACEMENT_3D('',#352,#182,#183);
#153=AXIS2_PLACEMENT_3D('',#353,#184,#185);
#154=DIRECTION('axis',(0.,0.,1.));
#155=DIRECTION('refdir',(1.,0.,0.));
#156=DIRECTION('axis',(0.,0.,1.));
#157=DIRECTION('refdir',(1.,0.,0.));
#158=DIRECTION('center_axis',(0.,0.,1.));
#159=DIRECTION('ref_axis',(1.,0.,0.));
#160=DIRECTION('',(0.,0.,1.));
#161=DIRECTION('center_axis',(0.,0.,-1.));
#162=DIRECTION('ref_axis',(1.,0.,0.));
#163=DIRECTION('',(0.,0.,-1.));
#164=DIRECTION('center_axis',(0.,1.,0.));
#165=DIRECTION('ref_axis',(1.,0.,0.));
#166=DIRECTION('center_axis',(0.,1.,0.));
#167=DIRECTION('ref_axis',(1.,0.,0.));
#168=DIRECTION('',(0.,1.,0.));
#169=DIRECTION('center_axis',(0.,1.,0.));
#170=DIRECTION('ref_axis',(1.,0.,0.));
#171=DIRECTION('center_axis',(0.,1.,0.));
#172=DIRECTION('ref_axis',(1.,0.,0.));
#173=DIRECTION('center_axis',(0.,1.,0.));
#174=DIRECTION('ref_axis',(1.,0.,0.));
#175=DIRECTION('center_axis',(0.,1.,0.));
#176=DIRECTION('ref_axis',(1.,0.,0.));
#177=DIRECTION('',(0.,-1.,0.));
#178=DIRECTION('center_axis',(0.,1.,0.));
#179=DIRECTION('ref_axis',(1.,0.,0.));
#180=DIRECTION('center_axis',(0.,1.,0.));
#181=DIRECTION('ref_axis',(1.,0.,0.));
#182=DIRECTION('center_axis',(0.,1.,0.));
#183=DIRECTION('ref_axis',(1.,0.,0.));
#184=DIRECTION('',(0.,0.,1.));
#185=DIRECTION('',(1.,0.,0.));
#186=CARTESIAN_POINT('',(0.,0.,0.));
#187=CARTESIAN_POINT('',(0.,0.,0.));
#188=CARTESIAN_POINT('Origin',(0.,54.,0.));
#189=CARTESIAN_POINT('',(2.117,54.,-7.19501987488568));
#190=CARTESIAN_POINT('',(-2.117,54.,-7.19501987488568));
#191=CARTESIAN_POINT('Ctrl Pts',(2.117,54.,-7.19501987488568));
#192=CARTESIAN_POINT('Ctrl Pts',(2.117,54.2674207490124,-7.19501987488568));
#193=CARTESIAN_POINT('Ctrl Pts',(2.06325703975657,54.5516019177775,-7.21148672660263));
#194=CARTESIAN_POINT('Ctrl Pts',(1.84677537866137,55.0727140880914,-7.26993746050427));
#195=CARTESIAN_POINT('Ctrl Pts',(1.68410868733474,55.3097814242091,-7.31096857887286));
#196=CARTESIAN_POINT('Ctrl Pts',(1.30982467526822,55.6840654362756,-7.38720692090402));
#197=CARTESIAN_POINT('Ctrl Pts',(1.07273959806158,55.8467657095272,-7.42751247693607));
#198=CARTESIAN_POINT('Ctrl Pts',(0.551563543216988,56.0632720531079,-7.4842828309815));
#199=CARTESIAN_POINT('Ctrl Pts',(0.267358951586688,56.117,-7.5));
#200=CARTESIAN_POINT('Ctrl Pts',(-0.267358951586688,56.117,-7.5));
#201=CARTESIAN_POINT('Ctrl Pts',(-0.551563543216987,56.0632720531079,-7.4842828309815));
#202=CARTESIAN_POINT('Ctrl Pts',(-1.07273959806158,55.8467657095272,-7.42751247693607));
#203=CARTESIAN_POINT('Ctrl Pts',(-1.30982467526822,55.6840654362756,-7.38720692090402));
#204=CARTESIAN_POINT('Ctrl Pts',(-1.68410868733474,55.3097814242091,-7.31096857887286));
#205=CARTESIAN_POINT('Ctrl Pts',(-1.84677537866137,55.0727140880914,-7.26993746050427));
#206=CARTESIAN_POINT('Ctrl Pts',(-2.06325703975657,54.5516019177775,-7.21148672660263));
#207=CARTESIAN_POINT('Ctrl Pts',(-2.117,54.2674207490124,-7.19501987488568));
#208=CARTESIAN_POINT('Ctrl Pts',(-2.117,54.,-7.19501987488568));
#209=CARTESIAN_POINT('Ctrl Pts',(-2.117,54.,-7.19501987488568));
#210=CARTESIAN_POINT('Ctrl Pts',(-2.117,53.7325792509876,-7.19501987488568));
#211=CARTESIAN_POINT('Ctrl Pts',(-2.06325703975657,53.4483980822225,-7.21148672660263));
#212=CARTESIAN_POINT('Ctrl Pts',(-1.84677537866137,52.9272859119086,-7.26993746050427));
#213=CARTESIAN_POINT('Ctrl Pts',(-1.68410868733474,52.6902185757909,-7.31096857887286));
#214=CARTESIAN_POINT('Ctrl Pts',(-1.30982467526822,52.3159345637244,-7.38720692090402));
#215=CARTESIAN_POINT('Ctrl Pts',(-1.07273959806158,52.1532342904728,-7.42751247693607));
#216=CARTESIAN_POINT('Ctrl Pts',(-0.551563543216988,51.9367279468921,-7.4842828309815));
#217=CARTESIAN_POINT('Ctrl Pts',(-0.267358951586688,51.883,-7.5));
#218=CARTESIAN_POINT('Ctrl Pts',(0.267358951586688,51.883,-7.5));
#219=CARTESIAN_POINT('Ctrl Pts',(0.551563543216987,51.9367279468921,-7.4842828309815));
#220=CARTESIAN_POINT('Ctrl Pts',(1.07273959806158,52.1532342904728,-7.42751247693607));
#221=CARTESIAN_POINT('Ctrl Pts',(1.30982467526822,52.3159345637244,-7.38720692090402));
#222=CARTESIAN_POINT('Ctrl Pts',(1.68410868733474,52.6902185757909,-7.31096857887286));
#223=CARTESIAN_POINT('Ctrl Pts',(1.84677537866138,52.9272859119086,-7.26993746050427));
#224=CARTESIAN_POINT('Ctrl Pts',(2.06325703975657,53.4483980822226,-7.21148672660263));
#225=CARTESIAN_POINT('Ctrl Pts',(2.117,53.7325792509876,-7.19501987488568));
#226=CARTESIAN_POINT('Ctrl Pts',(2.117,54.,-7.19501987488568));
#227=CARTESIAN_POINT('',(-2.117,54.,7.19501987488568));
#228=CARTESIAN_POINT('',(-2.117,54.,0.));
#229=CARTESIAN_POINT('',(2.117,54.,7.19501987488568));
#230=CARTESIAN_POINT('Ctrl Pts',(2.117,54.,7.19501987488568));
#231=CARTESIAN_POINT('Ctrl Pts',(2.117,53.7325792509876,7.19501987488568));
#232=CARTESIAN_POINT('Ctrl Pts',(2.06325703975657,53.4483980822225,7.21148672660263));
#233=CARTESIAN_POINT('Ctrl Pts',(1.84677537866137,52.9272859119086,7.26993746050427));
#234=CARTESIAN_POINT('Ctrl Pts',(1.68410868733474,52.6902185757909,7.31096857887286));
#235=CARTESIAN_POINT('Ctrl Pts',(1.30982467526821,52.3159345637244,7.38720692090402));
#236=CARTESIAN_POINT('Ctrl Pts',(1.07273959806158,52.1532342904728,7.42751247693607));
#237=CARTESIAN_POINT('Ctrl Pts',(0.551563543216987,51.9367279468921,7.4842828309815));
#238=CARTESIAN_POINT('Ctrl Pts',(0.267358951586688,51.883,7.5));
#239=CARTESIAN_POINT('Ctrl Pts',(-0.267358951586688,51.883,7.5));
#240=CARTESIAN_POINT('Ctrl Pts',(-0.551563543216988,51.9367279468921,7.4842828309815));
#241=CARTESIAN_POINT('Ctrl Pts',(-1.07273959806158,52.1532342904728,7.42751247693607));
#242=CARTESIAN_POINT('Ctrl Pts',(-1.30982467526822,52.3159345637244,7.38720692090402));
#243=CARTESIAN_POINT('Ctrl Pts',(-1.68410868733474,52.6902185757909,7.31096857887286));
#244=CARTESIAN_POINT('Ctrl Pts',(-1.84677537866137,52.9272859119086,7.26993746050427));
#245=CARTESIAN_POINT('Ctrl Pts',(-2.06325703975657,53.4483980822225,7.21148672660263));
#246=CARTESIAN_POINT('Ctrl Pts',(-2.117,53.7325792509876,7.19501987488568));
#247=CARTESIAN_POINT('Ctrl Pts',(-2.117,54.,7.19501987488568));
#248=CARTESIAN_POINT('Ctrl Pts',(-2.117,54.,7.19501987488568));
#249=CARTESIAN_POINT('Ctrl Pts',(-2.117,54.2674207490124,7.19501987488568));
#250=CARTESIAN_POINT('Ctrl Pts',(-2.06325703975657,54.5516019177775,7.21148672660263));
#251=CARTESIAN_POINT('Ctrl Pts',(-1.84677537866137,55.0727140880914,7.26993746050427));
#252=CARTESIAN_POINT('Ctrl Pts',(-1.68410868733474,55.3097814242091,7.31096857887286));
#253=CARTESIAN_POINT('Ctrl Pts',(-1.30982467526822,55.6840654362756,7.38720692090402));
#254=CARTESIAN_POINT('Ctrl Pts',(-1.07273959806158,55.8467657095272,7.42751247693607));
#255=CARTESIAN_POINT('Ctrl Pts',(-0.551563543216987,56.0632720531079,7.4842828309815));
#256=CARTESIAN_POINT('Ctrl Pts',(-0.267358951586688,56.117,7.5));
#257=CARTESIAN_POINT('Ctrl Pts',(0.267358951586688,56.117,7.5));
#258=CARTESIAN_POINT('Ctrl Pts',(0.551563543216987,56.0632720531079,7.4842828309815));
#259=CARTESIAN_POINT('Ctrl Pts',(1.07273959806158,55.8467657095272,7.42751247693607));
#260=CARTESIAN_POINT('Ctrl Pts',(1.30982467526822,55.6840654362756,7.38720692090402));
#261=CARTESIAN_POINT('Ctrl Pts',(1.68410868733474,55.3097814242091,7.31096857887286));
#262=CARTESIAN_POINT('Ctrl Pts',(1.84677537866137,55.0727140880914,7.26993746050427));
#263=CARTESIAN_POINT('Ctrl Pts',(2.06325703975657,54.5516019177775,7.21148672660263));
#264=CARTESIAN_POINT('Ctrl Pts',(2.117,54.2674207490124,7.19501987488568));
#265=CARTESIAN_POINT('Ctrl Pts',(2.117,54.,7.19501987488568));
#266=CARTESIAN_POINT('Origin',(0.,6.5,0.));
#267=CARTESIAN_POINT('',(-1.666,6.5,-2.49488356441739));
#268=CARTESIAN_POINT('Ctrl Pts',(-1.666,6.5,-2.49488356441739));
#269=CARTESIAN_POINT('Ctrl Pts',(-1.666,6.28485884000433,-2.49488356441739));
#270=CARTESIAN_POINT('Ctrl Pts',(-1.62201524436973,6.05996054405972,-2.52566843330495));
#271=CARTESIAN_POINT('Ctrl Pts',(-1.45080299875339,5.65162490901038,-2.62775645163949));
#272=CARTESIAN_POINT('Ctrl Pts',(-1.32367476511882,5.46759497020525,-2.6968428430728));
#273=CARTESIAN_POINT('Ctrl Pts',(-1.03305197212026,5.17697217720669,-2.82093203280058));
#274=CARTESIAN_POINT('Ctrl Pts',(-0.848824024192634,5.04938141308356,-2.88503045281359));
#275=CARTESIAN_POINT('Ctrl Pts',(-0.439538338117684,4.8777784636132,-2.97501412239078));
#276=CARTESIAN_POINT('Ctrl Pts',(-0.214185455331014,4.834,-3.));
#277=CARTESIAN_POINT('Ctrl Pts',(0.214185455331015,4.834,-3.));
#278=CARTESIAN_POINT('Ctrl Pts',(0.439538338117686,4.8777784636132,-2.97501412239078));
#279=CARTESIAN_POINT('Ctrl Pts',(0.848824024192636,5.04938141308356,-2.88503045281359));
#280=CARTESIAN_POINT('Ctrl Pts',(1.03305197212026,5.17697217720669,-2.82093203280058));
#281=CARTESIAN_POINT('Ctrl Pts',(1.32367476511882,5.46759497020525,-2.6968428430728));
#282=CARTESIAN_POINT('Ctrl Pts',(1.45080299875339,5.65162490901038,-2.62775645163949));
#283=CARTESIAN_POINT('Ctrl Pts',(1.62201524436973,6.05996054405972,-2.52566843330495));
#284=CARTESIAN_POINT('Ctrl Pts',(1.666,6.28485884000433,-2.49488356441739));
#285=CARTESIAN_POINT('Ctrl Pts',(1.666,6.71514115999567,-2.49488356441739));
#286=CARTESIAN_POINT('Ctrl Pts',(1.62201524436973,6.94003945594028,-2.52566843330495));
#287=CARTESIAN_POINT('Ctrl Pts',(1.45080299875339,7.34837509098962,-2.62775645163949));
#288=CARTESIAN_POINT('Ctrl Pts',(1.32367476511882,7.53240502979475,-2.6968428430728));
#289=CARTESIAN_POINT('Ctrl Pts',(1.03305197212026,7.82302782279331,-2.82093203280058));
#290=CARTESIAN_POINT('Ctrl Pts',(0.848824024192634,7.95061858691644,-2.88503045281359));
#291=CARTESIAN_POINT('Ctrl Pts',(0.439538338117685,8.1222215363868,-2.97501412239078));
#292=CARTESIAN_POINT('Ctrl Pts',(0.214185455331014,8.166,-3.));
#293=CARTESIAN_POINT('Ctrl Pts',(-0.214185455331015,8.166,-3.));
#294=CARTESIAN_POINT('Ctrl Pts',(-0.439538338117685,8.1222215363868,-2.97501412239078));
#295=CARTESIAN_POINT('Ctrl Pts',(-0.848824024192635,7.95061858691644,-2.88503045281359));
#296=CARTESIAN_POINT('Ctrl Pts',(-1.03305197212026,7.82302782279331,-2.82093203280058));
#297=CARTESIAN_POINT('Ctrl Pts',(-1.32367476511882,7.53240502979475,-2.6968428430728));
#298=CARTESIAN_POINT('Ctrl Pts',(-1.45080299875339,7.34837509098962,-2.62775645163949));
#299=CARTESIAN_POINT('Ctrl Pts',(-1.62201524436973,6.94003945594028,-2.52566843330495));
#300=CARTESIAN_POINT('Ctrl Pts',(-1.666,6.71514115999567,-2.49488356441739));
#301=CARTESIAN_POINT('Ctrl Pts',(-1.666,6.5,-2.49488356441739));
#302=CARTESIAN_POINT('',(-1.666,6.5,-7.31262223829455));
#303=CARTESIAN_POINT('',(-1.666,6.5,0.));
#304=CARTESIAN_POINT('Ctrl Pts',(-1.666,6.5,-7.31262223829455));
#305=CARTESIAN_POINT('Ctrl Pts',(-1.666,6.2900486071439,-7.31262223829455));
#306=CARTESIAN_POINT('Ctrl Pts',(-1.62389733114217,6.06660148422226,-7.32260341946114));
#307=CARTESIAN_POINT('Ctrl Pts',(-1.45366311589721,5.65635282559318,-7.35828966286936));
#308=CARTESIAN_POINT('Ctrl Pts',(-1.32556792654328,5.4694881316297,-7.38343989886258));
#309=CARTESIAN_POINT('Ctrl Pts',(-1.03052456175726,5.17444476684368,-7.43036542545362));
#310=CARTESIAN_POINT('Ctrl Pts',(-0.843654520559389,5.04633965246437,-7.45524205603496));
#311=CARTESIAN_POINT('Ctrl Pts',(-0.433387121340672,4.87609822064799,-7.49029790225537));
#312=CARTESIAN_POINT('Ctrl Pts',(-0.209933328531038,4.834,-7.5));
#313=CARTESIAN_POINT('Ctrl Pts',(0.209933328531039,4.834,-7.5));
#314=CARTESIAN_POINT('Ctrl Pts',(0.433387121340673,4.87609822064799,-7.49029790225537));
#315=CARTESIAN_POINT('Ctrl Pts',(0.843654520559392,5.04633965246437,-7.45524205603496));
#316=CARTESIAN_POINT('Ctrl Pts',(1.03052456175726,5.17444476684369,-7.43036542545362));
#317=CARTESIAN_POINT('Ctrl Pts',(1.32556792654328,5.4694881316297,-7.38343989886258));
#318=CARTESIAN_POINT('Ctrl Pts',(1.45366311589722,5.65635282559318,-7.35828966286936));
#319=CARTESIAN_POINT('Ctrl Pts',(1.62389733114217,6.06660148422226,-7.32260341946114));
#320=CARTESIAN_POINT('Ctrl Pts',(1.666,6.2900486071439,-7.31262223829455));
#321=CARTESIAN_POINT('Ctrl Pts',(1.666,6.7099513928561,-7.31262223829455));
#322=CARTESIAN_POINT('Ctrl Pts',(1.62389733114217,6.93339851577774,-7.32260341946114));
#323=CARTESIAN_POINT('Ctrl Pts',(1.45366311589722,7.34364717440682,-7.35828966286936));
#324=CARTESIAN_POINT('Ctrl Pts',(1.32556792654328,7.5305118683703,-7.38343989886258));
#325=CARTESIAN_POINT('Ctrl Pts',(1.03052456175726,7.82555523315632,-7.43036542545362));
#326=CARTESIAN_POINT('Ctrl Pts',(0.843654520559391,7.95366034753563,-7.45524205603496));
#327=CARTESIAN_POINT('Ctrl Pts',(0.433387121340673,8.12390177935201,-7.49029790225537));
#328=CARTESIAN_POINT('Ctrl Pts',(0.209933328531039,8.166,-7.5));
#329=CARTESIAN_POINT('Ctrl Pts',(-0.209933328531039,8.166,-7.5));
#330=CARTESIAN_POINT('Ctrl Pts',(-0.433387121340673,8.12390177935201,-7.49029790225537));
#331=CARTESIAN_POINT('Ctrl Pts',(-0.843654520559391,7.95366034753563,-7.45524205603496));
#332=CARTESIAN_POINT('Ctrl Pts',(-1.03052456175726,7.82555523315632,-7.43036542545362));
#333=CARTESIAN_POINT('Ctrl Pts',(-1.32556792654328,7.5305118683703,-7.38343989886258));
#334=CARTESIAN_POINT('Ctrl Pts',(-1.45366311589722,7.34364717440682,-7.35828966286936));
#335=CARTESIAN_POINT('Ctrl Pts',(-1.62389733114217,6.93339851577774,-7.32260341946114));
#336=CARTESIAN_POINT('Ctrl Pts',(-1.666,6.7099513928561,-7.31262223829455));
#337=CARTESIAN_POINT('Ctrl Pts',(-1.666,6.5,-7.31262223829455));
#338=CARTESIAN_POINT('Origin',(0.,0.,0.));
#339=CARTESIAN_POINT('',(-3.,0.,3.67394039744206E-16));
#340=CARTESIAN_POINT('Origin',(0.,0.,0.));
#341=CARTESIAN_POINT('',(-3.,25.,3.67394039744206E-16));
#342=CARTESIAN_POINT('',(-3.,0.,3.67394039744206E-16));
#343=CARTESIAN_POINT('Origin',(0.,25.,0.));
#344=CARTESIAN_POINT('Origin',(0.,25.,0.));
#345=CARTESIAN_POINT('Origin',(0.,0.,0.));
#346=CARTESIAN_POINT('',(-7.5,70.,9.18485099360515E-16));
#347=CARTESIAN_POINT('Origin',(0.,70.,0.));
#348=CARTESIAN_POINT('',(-7.5,0.,9.18485099360515E-16));
#349=CARTESIAN_POINT('',(-7.5,0.,9.18485099360515E-16));
#350=CARTESIAN_POINT('Origin',(0.,0.,0.));
#351=CARTESIAN_POINT('Origin',(0.,70.,0.));
#352=CARTESIAN_POINT('Origin',(0.,0.,0.));
#353=CARTESIAN_POINT('',(0.,0.,0.));
#354=UNCERTAINTY_MEASURE_WITH_UNIT(LENGTH_MEASURE(0.01),#360,
'DISTANCE_ACCURACY_VALUE',
'Maximum model space distance between geometric entities at asserted c
onnectivities');
#355=UNCERTAINTY_MEASURE_WITH_UNIT(LENGTH_MEASURE(0.01),#360,
'DISTANCE_ACCURACY_VALUE',
'Maximum model space distance between geometric entities at asserted c
onnectivities');
#356=UNCERTAINTY_MEASURE_WITH_UNIT(LENGTH_MEASURE(0.01),#360,
'DISTANCE_ACCURACY_VALUE',
'Maximum model space distance between geometric entities at asserted c
onnectivities');
#357=(
GEOMETRIC_REPRESENTATION_CONTEXT(3)
GLOBAL_UNCERTAINTY_ASSIGNED_CONTEXT((#354))
GLOBAL_UNIT_ASSIGNED_CONTEXT((#360,#362,#363))
REPRESENTATION_CONTEXT('','3D')
);
#358=(
GEOMETRIC_REPRESENTATION_CONTEXT(3)
GLOBAL_UNCERTAINTY_ASSIGNED_CONTEXT((#355))
GLOBAL_UNIT_ASSIGNED_CONTEXT((#360,#362,#363))
REPRESENTATION_CONTEXT('','3D')
);
#359=(
GEOMETRIC_REPRESENTATION_CONTEXT(3)
GLOBAL_UNCERTAINTY_ASSIGNED_CONTEXT((#356))
GLOBAL_UNIT_ASSIGNED_CONTEXT((#360,#362,#363))
REPRESENTATION_CONTEXT('','3D')
);
#360=(
LENGTH_UNIT()
NAMED_UNIT(*)
SI_UNIT(.MILLI.,.METRE.)
);
#361=(
LENGTH_UNIT()
NAMED_UNIT(*)
SI_UNIT($,.METRE.)
);
#362=(
NAMED_UNIT(*)
PLANE_ANGLE_UNIT()
SI_UNIT($,.RADIAN.)
);
#363=(
NAMED_UNIT(*)
SI_UNIT($,.STERADIAN.)
SOLID_ANGLE_UNIT()
);
#364=SHAPE_DEFINITION_REPRESENTATION(#366,#369);
#365=SHAPE_DEFINITION_REPRESENTATION(#367,#370);
#366=PRODUCT_DEFINITION_SHAPE('',$,#372);
#367=PRODUCT_DEFINITION_SHAPE('',$,#373);
#368=PRODUCT_DEFINITION_SHAPE($,$,#14);
#369=SHAPE_REPRESENTATION('',(#140,#153),#357);
#370=SHAPE_REPRESENTATION('',(#141),#358);
#371=PRODUCT_DEFINITION_CONTEXT('part definition',#379,'design');
#372=PRODUCT_DEFINITION('(Unsaved)','(Unsaved)',#374,#371);
#373=PRODUCT_DEFINITION('Wheel Axel','Wheel Axel',#375,#371);
#374=PRODUCT_DEFINITION_FORMATION('',$,#381);
#375=PRODUCT_DEFINITION_FORMATION('',$,#382);
#376=PRODUCT_RELATED_PRODUCT_CATEGORY('(Unsaved)','(Unsaved)',(#381));
#377=PRODUCT_RELATED_PRODUCT_CATEGORY('Wheel Axel','Wheel Axel',(#382));
#378=APPLICATION_PROTOCOL_DEFINITION('international standard',
'automotive_design',2009,#379);
#379=APPLICATION_CONTEXT(
'Core Data for Automotive Mechanical Design Process');
#380=PRODUCT_CONTEXT('part definition',#379,'mechanical');
#381=PRODUCT('(Unsaved)','(Unsaved)',$,(#380));
#382=PRODUCT('Wheel Axel','Wheel Axel',$,(#380));
#383=PRESENTATION_STYLE_ASSIGNMENT((#384));
#384=SURFACE_STYLE_USAGE(.BOTH.,#385);
#385=SURFACE_SIDE_STYLE('',(#386));
#386=SURFACE_STYLE_FILL_AREA(#387);
#387=FILL_AREA_STYLE('Steel - Satin',(#388));
#388=FILL_AREA_STYLE_COLOUR('Steel - Satin',#389);
#389=COLOUR_RGB('Steel - Satin',0.627450980392157,0.627450980392157,0.627450980392157);
ENDSEC;
END-ISO-10303-21;
