ISO-10303-21;
HEADER;
FILE_DESCRIPTION (( 'STEP AP214' ),
    '1' );
FILE_NAME ('EN2020-204-01 Rondelle.STEP',
    '2020-06-19T08:29:26',
    ( '' ),
    ( '' ),
    'SwSTEP 2.0',
    'SolidWorks 2019',
    '' );
FILE_SCHEMA (( 'AUTOMOTIVE_DESIGN' ));
ENDSEC;

DATA;
#1 = APPLICATION_PROTOCOL_DEFINITION ( 'draft international standard', 'automotive_design', 1998, #159 ) ;
#2 = VERTEX_POINT ( 'NONE', #43 ) ;
#3 = FACE_BOUND ( 'NONE', #105, .T. ) ;
#4 = ORIENTED_EDGE ( 'NONE', *, *, #169, .F. ) ;
#5 = CIRCLE ( 'NONE', #167, 14.85000000000000142 ) ;
#6 = DIRECTION ( 'NONE',  ( 1.000000000000000000, 0.0000000000000000000, -0.0000000000000000000 ) ) ;
#7 = ORIENTED_EDGE ( 'NONE', *, *, #80, .F. ) ;
#8 = EDGE_CURVE ( 'NONE', #66, #19, #5, .T. ) ;
#9 = CARTESIAN_POINT ( 'NONE',  ( 5.999999999999999112, 7.347880794884118750E-16, 2.500000000000000000 ) ) ;
#10 = ADVANCED_BREP_SHAPE_REPRESENTATION ( 'EN2020-204-01 Rondelle', ( #202, #20 ), #209 ) ;
#11 = AXIS2_PLACEMENT_3D ( 'NONE', #178, #48, #115 ) ;
#12 = DIRECTION ( 'NONE',  ( -1.000000000000000000, 0.0000000000000000000, 0.0000000000000000000 ) ) ;
#13 = PRODUCT_DEFINITION_CONTEXT ( 'detailed design', #159, 'design' ) ;
#14 = SURFACE_SIDE_STYLE ('',( #26 ) ) ;
#15 = CARTESIAN_POINT ( 'NONE',  ( 0.0000000000000000000, 0.0000000000000000000, 0.0000000000000000000 ) ) ;
#16 = AXIS2_PLACEMENT_3D ( 'NONE', #64, #148, #27 ) ;
#17 = EDGE_LOOP ( 'NONE', ( #184, #172, #203, #187 ) ) ;
#18 =( LENGTH_UNIT ( ) NAMED_UNIT ( * ) SI_UNIT ( .MILLI., .METRE. ) );
#19 = VERTEX_POINT ( 'NONE', #41 ) ;
#20 = AXIS2_PLACEMENT_3D ( 'NONE', #101, #152, #118 ) ;
#21 = DIRECTION ( 'NONE',  ( -1.000000000000000000, 0.0000000000000000000, 0.0000000000000000000 ) ) ;
#22 = FACE_OUTER_BOUND ( 'NONE', #183, .T. ) ;
#23 = VERTEX_POINT ( 'NONE', #189 ) ;
#24 = ORIENTED_EDGE ( 'NONE', *, *, #160, .T. ) ;
#25 = CARTESIAN_POINT ( 'NONE',  ( 14.85000000000000142, 1.818600496733819948E-15, 2.500000000000000000 ) ) ;
#26 = SURFACE_STYLE_FILL_AREA ( #170 ) ;
#27 = DIRECTION ( 'NONE',  ( 1.000000000000000000, 0.0000000000000000000, 0.0000000000000000000 ) ) ;
#28 = SURFACE_STYLE_USAGE ( .BOTH. , #14 ) ;
#29 = CARTESIAN_POINT ( 'NONE',  ( 5.999999999999999112, 7.347880794884118750E-16, 2.500000000000000000 ) ) ;
#30 = DIRECTION ( 'NONE',  ( 1.000000000000000000, 0.0000000000000000000, 0.0000000000000000000 ) ) ;
#31 = CIRCLE ( 'NONE', #11, 5.999999999999999112 ) ;
#32 = EDGE_CURVE ( 'NONE', #19, #66, #55, .T. ) ;
#33 = PRODUCT_CONTEXT ( 'NONE', #133, 'mechanical' ) ;
#34 = ORIENTED_EDGE ( 'NONE', *, *, #119, .F. ) ;
#35 = EDGE_CURVE ( 'NONE', #23, #2, #161, .T. ) ;
#36 =( NAMED_UNIT ( * ) PLANE_ANGLE_UNIT ( ) SI_UNIT ( $, .RADIAN. ) );
#37 = PRODUCT ( 'EN2020-204-01 Rondelle', 'EN2020-204-01 Rondelle', '', ( #33 ) ) ;
#38 = VERTEX_POINT ( 'NONE', #143 ) ;
#39 = PLANE ( 'NONE',  #42 ) ;
#40 = CARTESIAN_POINT ( 'NONE',  ( 0.0000000000000000000, 0.0000000000000000000, 2.500000000000000000 ) ) ;
#41 = CARTESIAN_POINT ( 'NONE',  ( -14.85000000000000142, 0.0000000000000000000, 2.500000000000000000 ) ) ;
#42 = AXIS2_PLACEMENT_3D ( 'NONE', #157, #75, #106 ) ;
#43 = CARTESIAN_POINT ( 'NONE',  ( -5.999999999999999112, 0.0000000000000000000, 0.0000000000000000000 ) ) ;
#44 = CARTESIAN_POINT ( 'NONE',  ( 14.85000000000000142, 1.818600496733819948E-15, 0.0000000000000000000 ) ) ;
#45 = UNCERTAINTY_MEASURE_WITH_UNIT (LENGTH_MEASURE( 1.000000000000000082E-05 ), #18, 'distance_accuracy_value', 'NONE');
#46 = CARTESIAN_POINT ( 'NONE',  ( 0.0000000000000000000, 0.0000000000000000000, 2.500000000000000000 ) ) ;
#47 = CARTESIAN_POINT ( 'NONE',  ( 0.0000000000000000000, 0.0000000000000000000, 2.500000000000000000 ) ) ;
#48 = DIRECTION ( 'NONE',  ( 0.0000000000000000000, 0.0000000000000000000, 1.000000000000000000 ) ) ;
#49 = EDGE_CURVE ( 'NONE', #135, #100, #71, .T. ) ;
#50 = EDGE_CURVE ( 'NONE', #135, #23, #181, .T. ) ;
#51 = CIRCLE ( 'NONE', #16, 5.999999999999999112 ) ;
#52 = ORIENTED_EDGE ( 'NONE', *, *, #95, .T. ) ;
#53 = EDGE_CURVE ( 'NONE', #124, #38, #109, .T. ) ;
#54 = LINE ( 'NONE', #25, #198 ) ;
#55 = CIRCLE ( 'NONE', #104, 14.85000000000000142 ) ;
#56 = FACE_OUTER_BOUND ( 'NONE', #174, .T. ) ;
#57 = EDGE_CURVE ( 'NONE', #66, #124, #54, .T. ) ;
#58 = ORIENTED_EDGE ( 'NONE', *, *, #53, .F. ) ;
#59 = PLANE ( 'NONE',  #125 ) ;
#60 = AXIS2_PLACEMENT_3D ( 'NONE', #179, #149, #114 ) ;
#61 = DIRECTION ( 'NONE',  ( -0.0000000000000000000, -0.0000000000000000000, -1.000000000000000000 ) ) ;
#62 = CYLINDRICAL_SURFACE ( 'NONE', #63, 5.999999999999999112 ) ;
#63 = AXIS2_PLACEMENT_3D ( 'NONE', #47, #134, #12 ) ;
#64 = CARTESIAN_POINT ( 'NONE',  ( 0.0000000000000000000, 0.0000000000000000000, 0.0000000000000000000 ) ) ;
#65 = FACE_OUTER_BOUND ( 'NONE', #186, .T. ) ;
#66 = VERTEX_POINT ( 'NONE', #173 ) ;
#67 = ADVANCED_FACE ( 'NONE', ( #56, #127 ), #59, .F. ) ;
#68 = SURFACE_SIDE_STYLE ('',( #82 ) ) ;
#69 = PRESENTATION_STYLE_ASSIGNMENT (( #197 ) ) ;
#70 = EDGE_LOOP ( 'NONE', ( #153, #137 ) ) ;
#71 = LINE ( 'NONE', #9, #130 ) ;
#72 = DIRECTION ( 'NONE',  ( 0.0000000000000000000, 0.0000000000000000000, 1.000000000000000000 ) ) ;
#73 = ADVANCED_FACE ( 'NONE', ( #22 ), #171, .F. ) ;
#74 = ADVANCED_FACE ( 'NONE', ( #154, #3 ), #39, .T. ) ;
#75 = DIRECTION ( 'NONE',  ( 0.0000000000000000000, 0.0000000000000000000, 1.000000000000000000 ) ) ;
#76 = CARTESIAN_POINT ( 'NONE',  ( 0.0000000000000000000, 0.0000000000000000000, 2.500000000000000000 ) ) ;
#77 = ORIENTED_EDGE ( 'NONE', *, *, #35, .T. ) ;
#78 = UNCERTAINTY_MEASURE_WITH_UNIT (LENGTH_MEASURE( 1.000000000000000082E-05 ), #128, 'distance_accuracy_value', 'NONE');
#79 = FACE_OUTER_BOUND ( 'NONE', #144, .T. ) ;
#80 = EDGE_CURVE ( 'NONE', #19, #38, #132, .T. ) ;
#81 =( NAMED_UNIT ( * ) PLANE_ANGLE_UNIT ( ) SI_UNIT ( $, .RADIAN. ) );
#82 = SURFACE_STYLE_FILL_AREA ( #99 ) ;
#83 = ORIENTED_EDGE ( 'NONE', *, *, #50, .F. ) ;
#84 =( NAMED_UNIT ( * ) SI_UNIT ( $, .STERADIAN. ) SOLID_ANGLE_UNIT ( ) );
#85 = PRODUCT_RELATED_PRODUCT_CATEGORY ( 'part', '', ( #37 ) ) ;
#86 = ORIENTED_EDGE ( 'NONE', *, *, #57, .T. ) ;
#87 = ORIENTED_EDGE ( 'NONE', *, *, #169, .T. ) ;
#88 = CARTESIAN_POINT ( 'NONE',  ( 0.0000000000000000000, 0.0000000000000000000, 0.0000000000000000000 ) ) ;
#89 = ORIENTED_EDGE ( 'NONE', *, *, #49, .F. ) ;
#90 = ORIENTED_EDGE ( 'NONE', *, *, #80, .T. ) ;
#91 = DIRECTION ( 'NONE',  ( -0.0000000000000000000, -0.0000000000000000000, -1.000000000000000000 ) ) ;
#92 = AXIS2_PLACEMENT_3D ( 'NONE', #163, #211, #30 ) ;
#93 =( NAMED_UNIT ( * ) SI_UNIT ( $, .STERADIAN. ) SOLID_ANGLE_UNIT ( ) );
#94 = FACE_OUTER_BOUND ( 'NONE', #17, .T. ) ;
#95 = EDGE_CURVE ( 'NONE', #2, #100, #51, .T. ) ;
#96 = DIRECTION ( 'NONE',  ( 0.0000000000000000000, 0.0000000000000000000, 1.000000000000000000 ) ) ;
#97 = AXIS2_PLACEMENT_3D ( 'NONE', #88, #72, #107 ) ;
#98 = CARTESIAN_POINT ( 'NONE',  ( -14.85000000000000142, 0.0000000000000000000, 2.500000000000000000 ) ) ;
#99 = FILL_AREA_STYLE ('',( #201 ) ) ;
#100 = VERTEX_POINT ( 'NONE', #196 ) ;
#101 = CARTESIAN_POINT ( 'NONE',  ( 0.0000000000000000000, 0.0000000000000000000, 0.0000000000000000000 ) ) ;
#102 = ORIENTED_EDGE ( 'NONE', *, *, #57, .F. ) ;
#103 = SHAPE_DEFINITION_REPRESENTATION ( #175, #10 ) ;
#104 = AXIS2_PLACEMENT_3D ( 'NONE', #40, #191, #176 ) ;
#105 = EDGE_LOOP ( 'NONE', ( #34, #83 ) ) ;
#106 = DIRECTION ( 'NONE',  ( 1.000000000000000000, 0.0000000000000000000, -0.0000000000000000000 ) ) ;
#107 = DIRECTION ( 'NONE',  ( 1.000000000000000000, 0.0000000000000000000, 0.0000000000000000000 ) ) ;
#108 = CARTESIAN_POINT ( 'NONE',  ( 0.0000000000000000000, 0.0000000000000000000, 2.500000000000000000 ) ) ;
#109 = CIRCLE ( 'NONE', #97, 14.85000000000000142 ) ;
#110 = DIRECTION ( 'NONE',  ( 0.0000000000000000000, 0.0000000000000000000, 1.000000000000000000 ) ) ;
#111 = UNCERTAINTY_MEASURE_WITH_UNIT (LENGTH_MEASURE( 1.000000000000000082E-05 ), #165, 'distance_accuracy_value', 'NONE');
#112 = CYLINDRICAL_SURFACE ( 'NONE', #60, 14.85000000000000142 ) ;
#113 = FILL_AREA_STYLE_COLOUR ( '', #180 ) ;
#114 = DIRECTION ( 'NONE',  ( -1.000000000000000000, 0.0000000000000000000, 0.0000000000000000000 ) ) ;
#115 = DIRECTION ( 'NONE',  ( 1.000000000000000000, 0.0000000000000000000, 0.0000000000000000000 ) ) ;
#116 = PRESENTATION_LAYER_ASSIGNMENT (  '', '', ( #117 ) ) ;
#117 = STYLED_ITEM ( 'NONE', ( #129 ), #202 ) ;
#118 = DIRECTION ( 'NONE',  ( 1.000000000000000000, 0.0000000000000000000, 0.0000000000000000000 ) ) ;
#119 = EDGE_CURVE ( 'NONE', #23, #135, #193, .T. ) ;
#120 = DIRECTION ( 'NONE',  ( -0.0000000000000000000, -0.0000000000000000000, -1.000000000000000000 ) ) ;
#121 = PRODUCT_DEFINITION_FORMATION_WITH_SPECIFIED_SOURCE ( 'ANY', '', #37, .NOT_KNOWN. ) ;
#122 = CARTESIAN_POINT ( 'NONE',  ( 0.0000000000000000000, 0.0000000000000000000, 2.500000000000000000 ) ) ;
#123 = CARTESIAN_POINT ( 'NONE',  ( -5.999999999999999112, 0.0000000000000000000, 2.500000000000000000 ) ) ;
#124 = VERTEX_POINT ( 'NONE', #44 ) ;
#125 = AXIS2_PLACEMENT_3D ( 'NONE', #141, #162, #6 ) ;
#126 = ADVANCED_FACE ( 'NONE', ( #94 ), #62, .F. ) ;
#127 = FACE_BOUND ( 'NONE', #200, .T. ) ;
#128 =( LENGTH_UNIT ( ) NAMED_UNIT ( * ) SI_UNIT ( .MILLI., .METRE. ) );
#129 = PRESENTATION_STYLE_ASSIGNMENT (( #28 ) ) ;
#130 = VECTOR ( 'NONE', #138, 1000.000000000000000 ) ;
#131 = CYLINDRICAL_SURFACE ( 'NONE', #158, 14.85000000000000142 ) ;
#132 = LINE ( 'NONE', #98, #185 ) ;
#133 = APPLICATION_CONTEXT ( 'automotive_design' ) ;
#134 = DIRECTION ( 'NONE',  ( -0.0000000000000000000, -0.0000000000000000000, -1.000000000000000000 ) ) ;
#135 = VERTEX_POINT ( 'NONE', #29 ) ;
#136 = VECTOR ( 'NONE', #205, 1000.000000000000000 ) ;
#137 = ORIENTED_EDGE ( 'NONE', *, *, #8, .T. ) ;
#138 = DIRECTION ( 'NONE',  ( -0.0000000000000000000, -0.0000000000000000000, -1.000000000000000000 ) ) ;
#139 = CIRCLE ( 'NONE', #156, 14.85000000000000142 ) ;
#140 = DIRECTION ( 'NONE',  ( 1.000000000000000000, 0.0000000000000000000, 0.0000000000000000000 ) ) ;
#141 = CARTESIAN_POINT ( 'NONE',  ( 0.0000000000000000000, 0.0000000000000000000, 0.0000000000000000000 ) ) ;
#142 = PRODUCT_DEFINITION ( 'UNKNOWN', '', #121, #13 ) ;
#143 = CARTESIAN_POINT ( 'NONE',  ( -14.85000000000000142, 0.0000000000000000000, 0.0000000000000000000 ) ) ;
#144 = EDGE_LOOP ( 'NONE', ( #102, #208, #90, #87 ) ) ;
#145 = MECHANICAL_DESIGN_GEOMETRIC_PRESENTATION_REPRESENTATION (  '', ( #117 ), #146 ) ;
#146 =( GEOMETRIC_REPRESENTATION_CONTEXT ( 3 ) GLOBAL_UNCERTAINTY_ASSIGNED_CONTEXT ( ( #111 ) ) GLOBAL_UNIT_ASSIGNED_CONTEXT ( ( #165, #81, #212 ) ) REPRESENTATION_CONTEXT ( 'NONE', 'WORKASPACE' ) );
#147 = DIRECTION ( 'NONE',  ( -1.000000000000000000, 0.0000000000000000000, 0.0000000000000000000 ) ) ;
#148 = DIRECTION ( 'NONE',  ( 0.0000000000000000000, 0.0000000000000000000, 1.000000000000000000 ) ) ;
#149 = DIRECTION ( 'NONE',  ( -0.0000000000000000000, -0.0000000000000000000, -1.000000000000000000 ) ) ;
#150 = ORIENTED_EDGE ( 'NONE', *, *, #8, .F. ) ;
#151 = CLOSED_SHELL ( 'NONE', ( #126, #204, #74, #67, #195, #73 ) ) ;
#152 = DIRECTION ( 'NONE',  ( 0.0000000000000000000, 0.0000000000000000000, 1.000000000000000000 ) ) ;
#153 = ORIENTED_EDGE ( 'NONE', *, *, #32, .T. ) ;
#154 = FACE_OUTER_BOUND ( 'NONE', #70, .T. ) ;
#155 = DIRECTION ( 'NONE',  ( 1.000000000000000000, 0.0000000000000000000, 0.0000000000000000000 ) ) ;
#156 = AXIS2_PLACEMENT_3D ( 'NONE', #15, #96, #194 ) ;
#157 = CARTESIAN_POINT ( 'NONE',  ( 0.0000000000000000000, 0.0000000000000000000, 2.500000000000000000 ) ) ;
#158 = AXIS2_PLACEMENT_3D ( 'NONE', #46, #166, #147 ) ;
#159 = APPLICATION_CONTEXT ( 'automotive_design' ) ;
#160 = EDGE_CURVE ( 'NONE', #100, #2, #31, .T. ) ;
#161 = LINE ( 'NONE', #123, #136 ) ;
#162 = DIRECTION ( 'NONE',  ( 0.0000000000000000000, 0.0000000000000000000, 1.000000000000000000 ) ) ;
#163 = CARTESIAN_POINT ( 'NONE',  ( 0.0000000000000000000, 0.0000000000000000000, 2.500000000000000000 ) ) ;
#164 =( GEOMETRIC_REPRESENTATION_CONTEXT ( 3 ) GLOBAL_UNCERTAINTY_ASSIGNED_CONTEXT ( ( #45 ) ) GLOBAL_UNIT_ASSIGNED_CONTEXT ( ( #18, #36, #84 ) ) REPRESENTATION_CONTEXT ( 'NONE', 'WORKASPACE' ) );
#165 =( LENGTH_UNIT ( ) NAMED_UNIT ( * ) SI_UNIT ( .MILLI., .METRE. ) );
#166 = DIRECTION ( 'NONE',  ( -0.0000000000000000000, -0.0000000000000000000, -1.000000000000000000 ) ) ;
#167 = AXIS2_PLACEMENT_3D ( 'NONE', #76, #110, #140 ) ;
#168 = STYLED_ITEM ( 'NONE', ( #69 ), #10 ) ;
#169 = EDGE_CURVE ( 'NONE', #38, #124, #139, .T. ) ;
#170 = FILL_AREA_STYLE ('',( #113 ) ) ;
#171 = CYLINDRICAL_SURFACE ( 'NONE', #177, 5.999999999999999112 ) ;
#172 = ORIENTED_EDGE ( 'NONE', *, *, #49, .T. ) ;
#173 = CARTESIAN_POINT ( 'NONE',  ( 14.85000000000000142, 1.818600496733819948E-15, 2.500000000000000000 ) ) ;
#174 = EDGE_LOOP ( 'NONE', ( #4, #58 ) ) ;
#175 = PRODUCT_DEFINITION_SHAPE ( 'NONE', 'NONE',  #142 ) ;
#176 = DIRECTION ( 'NONE',  ( 1.000000000000000000, 0.0000000000000000000, 0.0000000000000000000 ) ) ;
#177 = AXIS2_PLACEMENT_3D ( 'NONE', #122, #120, #21 ) ;
#178 = CARTESIAN_POINT ( 'NONE',  ( 0.0000000000000000000, 0.0000000000000000000, 0.0000000000000000000 ) ) ;
#179 = CARTESIAN_POINT ( 'NONE',  ( 0.0000000000000000000, 0.0000000000000000000, 2.500000000000000000 ) ) ;
#180 = COLOUR_RGB ( '',1.000000000000000000, 1.000000000000000000, 1.000000000000000000 ) ;
#181 = CIRCLE ( 'NONE', #210, 5.999999999999999112 ) ;
#182 = COLOUR_RGB ( '',1.000000000000000000, 1.000000000000000000, 1.000000000000000000 ) ;
#183 = EDGE_LOOP ( 'NONE', ( #89, #214, #77, #206 ) ) ;
#184 = ORIENTED_EDGE ( 'NONE', *, *, #119, .T. ) ;
#185 = VECTOR ( 'NONE', #91, 1000.000000000000000 ) ;
#186 = EDGE_LOOP ( 'NONE', ( #150, #86, #188, #7 ) ) ;
#187 = ORIENTED_EDGE ( 'NONE', *, *, #35, .F. ) ;
#188 = ORIENTED_EDGE ( 'NONE', *, *, #53, .T. ) ;
#189 = CARTESIAN_POINT ( 'NONE',  ( -5.999999999999999112, 0.0000000000000000000, 2.500000000000000000 ) ) ;
#190 = PRESENTATION_LAYER_ASSIGNMENT (  '', '', ( #168 ) ) ;
#191 = DIRECTION ( 'NONE',  ( 0.0000000000000000000, 0.0000000000000000000, 1.000000000000000000 ) ) ;
#192 =( NAMED_UNIT ( * ) PLANE_ANGLE_UNIT ( ) SI_UNIT ( $, .RADIAN. ) );
#193 = CIRCLE ( 'NONE', #92, 5.999999999999999112 ) ;
#194 = DIRECTION ( 'NONE',  ( 1.000000000000000000, 0.0000000000000000000, 0.0000000000000000000 ) ) ;
#195 = ADVANCED_FACE ( 'NONE', ( #79 ), #112, .T. ) ;
#196 = CARTESIAN_POINT ( 'NONE',  ( 5.999999999999999112, 7.347880794884118750E-16, 0.0000000000000000000 ) ) ;
#197 = SURFACE_STYLE_USAGE ( .BOTH. , #68 ) ;
#198 = VECTOR ( 'NONE', #61, 1000.000000000000000 ) ;
#199 = APPLICATION_PROTOCOL_DEFINITION ( 'draft international standard', 'automotive_design', 1998, #133 ) ;
#200 = EDGE_LOOP ( 'NONE', ( #52, #24 ) ) ;
#201 = FILL_AREA_STYLE_COLOUR ( '', #182 ) ;
#202 = MANIFOLD_SOLID_BREP ( 'Boss.-Extru.1', #151 ) ;
#203 = ORIENTED_EDGE ( 'NONE', *, *, #95, .F. ) ;
#204 = ADVANCED_FACE ( 'NONE', ( #65 ), #131, .T. ) ;
#205 = DIRECTION ( 'NONE',  ( -0.0000000000000000000, -0.0000000000000000000, -1.000000000000000000 ) ) ;
#206 = ORIENTED_EDGE ( 'NONE', *, *, #160, .F. ) ;
#207 = DIRECTION ( 'NONE',  ( 0.0000000000000000000, 0.0000000000000000000, 1.000000000000000000 ) ) ;
#208 = ORIENTED_EDGE ( 'NONE', *, *, #32, .F. ) ;
#209 =( GEOMETRIC_REPRESENTATION_CONTEXT ( 3 ) GLOBAL_UNCERTAINTY_ASSIGNED_CONTEXT ( ( #78 ) ) GLOBAL_UNIT_ASSIGNED_CONTEXT ( ( #128, #192, #93 ) ) REPRESENTATION_CONTEXT ( 'NONE', 'WORKASPACE' ) );
#210 = AXIS2_PLACEMENT_3D ( 'NONE', #108, #207, #155 ) ;
#211 = DIRECTION ( 'NONE',  ( 0.0000000000000000000, 0.0000000000000000000, 1.000000000000000000 ) ) ;
#212 =( NAMED_UNIT ( * ) SI_UNIT ( $, .STERADIAN. ) SOLID_ANGLE_UNIT ( ) );
#213 = MECHANICAL_DESIGN_GEOMETRIC_PRESENTATION_REPRESENTATION (  '', ( #168 ), #164 ) ;
#214 = ORIENTED_EDGE ( 'NONE', *, *, #50, .T. ) ;
ENDSEC;
END-ISO-10303-21;
