ISO-10303-21;
HEADER;
FILE_DESCRIPTION(('CATIA V5 STEP','CAx-IF Rec.Pracs.--- Model Styling and Organization---1.2---2011-12-15'),'2;1');

FILE_NAME('C:\\Users\\lvassieu\\Documents\\Perso\\mobilier\\Plaque scie \X2\00E0\X0\ ruban_v3.stp','2020-06-09T07:12:48+00:00',('none'),('none'),'CATIA Version 5-6 Release 2014 SP4 HF109','CATIA V5 STEP AP214','none');

FILE_SCHEMA(('AUTOMOTIVE_DESIGN { 1 0 10303 214 1 1 1 1 }'));

ENDSEC;
DATA;
#5=PRODUCT('Part1','','',(#2)) ;
#2=PRODUCT_CONTEXT(' ',#1,'mechanical') ;
#1=APPLICATION_CONTEXT('automotive design') ;
#10=PRODUCT_DEFINITION('',' ',#6,#3) ;
#3=PRODUCT_DEFINITION_CONTEXT('part definition',#1,' ') ;
#11=PRODUCT_DEFINITION_SHAPE(' ',' ',#10) ;
#454=MECHANICAL_DESIGN_GEOMETRIC_PRESENTATION_REPRESENTATION(' ',(#29),#16) ;
#455=MECHANICAL_DESIGN_GEOMETRIC_PRESENTATION_REPRESENTATION(' ',(#451),#16) ;
#19=SHAPE_REPRESENTATION(' ',(#18),#16) ;
#18=AXIS2_PLACEMENT_3D(' ',#17,$,$) ;
#34=AXIS2_PLACEMENT_3D('Plane Axis2P3D',#31,#32,#33) ;
#38=AXIS2_PLACEMENT_3D('Circle Axis2P3D',#36,#37,$) ;
#47=AXIS2_PLACEMENT_3D('Circle Axis2P3D',#45,#46,$) ;
#54=AXIS2_PLACEMENT_3D('Circle Axis2P3D',#52,#53,$) ;
#68=AXIS2_PLACEMENT_3D('Circle Axis2P3D',#66,#67,$) ;
#88=AXIS2_PLACEMENT_3D('Circle Axis2P3D',#86,#87,$) ;
#97=AXIS2_PLACEMENT_3D('Circle Axis2P3D',#95,#96,$) ;
#108=AXIS2_PLACEMENT_3D('Plane Axis2P3D',#105,#106,#107) ;
#139=AXIS2_PLACEMENT_3D('Cylinder Axis2P3D',#136,#137,#138) ;
#143=AXIS2_PLACEMENT_3D('Circle Axis2P3D',#141,#142,$) ;
#163=AXIS2_PLACEMENT_3D('Plane Axis2P3D',#160,#161,#162) ;
#187=AXIS2_PLACEMENT_3D('Cone Axis2P3D',#184,#185,#186) ;
#198=AXIS2_PLACEMENT_3D('Circle Axis2P3D',#196,#197,$) ;
#218=AXIS2_PLACEMENT_3D('Cylinder Axis2P3D',#215,#216,#217) ;
#236=AXIS2_PLACEMENT_3D('Circle Axis2P3D',#234,#235,$) ;
#256=AXIS2_PLACEMENT_3D('Circle Axis2P3D',#254,#255,$) ;
#270=AXIS2_PLACEMENT_3D('Cylinder Axis2P3D',#267,#268,#269) ;
#282=AXIS2_PLACEMENT_3D('Circle Axis2P3D',#280,#281,$) ;
#296=AXIS2_PLACEMENT_3D('Plane Axis2P3D',#293,#294,#295) ;
#300=AXIS2_PLACEMENT_3D('Circle Axis2P3D',#298,#299,$) ;
#309=AXIS2_PLACEMENT_3D('Circle Axis2P3D',#307,#308,$) ;
#316=AXIS2_PLACEMENT_3D('Circle Axis2P3D',#314,#315,$) ;
#341=AXIS2_PLACEMENT_3D('Circle Axis2P3D',#339,#340,$) ;
#350=AXIS2_PLACEMENT_3D('Circle Axis2P3D',#348,#349,$) ;
#361=AXIS2_PLACEMENT_3D('Plane Axis2P3D',#358,#359,#360) ;
#380=AXIS2_PLACEMENT_3D('Plane Axis2P3D',#377,#378,#379) ;
#399=AXIS2_PLACEMENT_3D('Cone Axis2P3D',#396,#397,#398) ;
#415=AXIS2_PLACEMENT_3D('Cylinder Axis2P3D',#412,#413,#414) ;
#446=AXIS2_PLACEMENT_3D('Absolute Axis System',#443,#444,#445) ;
#17=CARTESIAN_POINT(' ',(0.,0.,0.)) ;
#31=CARTESIAN_POINT('Axis2P3D Location',(0.,0.,4.)) ;
#36=CARTESIAN_POINT('Axis2P3D Location',(0.,0.,4.)) ;
#40=CARTESIAN_POINT('Vertex',(-6.,24.269322199,4.)) ;
#42=CARTESIAN_POINT('Vertex',(-3.12751451579,-24.8036016125,4.)) ;
#45=CARTESIAN_POINT('Axis2P3D Location',(0.,0.,4.)) ;
#49=CARTESIAN_POINT('Vertex',(3.12770127074,-24.8035780637,4.)) ;
#52=CARTESIAN_POINT('Axis2P3D Location',(0.,0.,4.)) ;
#56=CARTESIAN_POINT('Vertex',(6.,24.269322199,4.)) ;
#59=CARTESIAN_POINT('Line Origine',(6.,10.1346610995,4.)) ;
#63=CARTESIAN_POINT('Vertex',(6.,-4.,4.)) ;
#66=CARTESIAN_POINT('Axis2P3D Location',(0.,-4.,4.)) ;
#70=CARTESIAN_POINT('Vertex',(-6.,-4.,4.)) ;
#73=CARTESIAN_POINT('Line Origine',(-6.,10.1346610995,4.)) ;
#86=CARTESIAN_POINT('Axis2P3D Location',(0.,-23.2,4.)) ;
#90=CARTESIAN_POINT('Vertex',(0.883286848543,-22.7174581954,4.)) ;
#92=CARTESIAN_POINT('Vertex',(-0.883286848543,-23.6825418046,4.)) ;
#95=CARTESIAN_POINT('Axis2P3D Location',(0.,-23.2,4.)) ;
#105=CARTESIAN_POINT('Axis2P3D Location',(6.,24.269322199,0.)) ;
#110=CARTESIAN_POINT('Line Origine',(6.,-4.,3.5)) ;
#114=CARTESIAN_POINT('Vertex',(6.,-4.,3.)) ;
#117=CARTESIAN_POINT('Line Origine',(6.,24.269322199,3.5)) ;
#121=CARTESIAN_POINT('Vertex',(6.,24.269322199,3.)) ;
#124=CARTESIAN_POINT('Line Origine',(6.,10.1346610995,3.)) ;
#136=CARTESIAN_POINT('Axis2P3D Location',(0.,-4.,2.)) ;
#141=CARTESIAN_POINT('Axis2P3D Location',(0.,-4.,3.)) ;
#145=CARTESIAN_POINT('Vertex',(-6.,-4.,3.)) ;
#148=CARTESIAN_POINT('Line Origine',(-6.,-4.,2.)) ;
#160=CARTESIAN_POINT('Axis2P3D Location',(-6.,24.269322199,0.)) ;
#165=CARTESIAN_POINT('Line Origine',(-6.,10.1346610995,3.)) ;
#169=CARTESIAN_POINT('Vertex',(-6.,24.269322199,3.)) ;
#172=CARTESIAN_POINT('Line Origine',(-6.,24.269322199,3.5)) ;
#184=CARTESIAN_POINT('Axis2P3D Location',(8.881784197E-016,-4.,9.)) ;
#189=CARTESIAN_POINT('Line Origine',(7.5,-4.,1.5)) ;
#193=CARTESIAN_POINT('Vertex',(9.,-4.,0.)) ;
#196=CARTESIAN_POINT('Axis2P3D Location',(-4.4408920985E-016,-4.,0.)) ;
#200=CARTESIAN_POINT('Vertex',(-9.,-4.,0.)) ;
#203=CARTESIAN_POINT('Line Origine',(-7.5,-4.,1.5)) ;
#215=CARTESIAN_POINT('Axis2P3D Location',(0.,0.,2.)) ;
#220=CARTESIAN_POINT('Line Origine',(3.12770127074,-24.8035780637,2.)) ;
#224=CARTESIAN_POINT('Vertex',(3.12770127074,-24.8035780637,0.5)) ;
#227=CARTESIAN_POINT('Line Origine',(-3.12751451579,-24.8036016125,2.)) ;
#231=CARTESIAN_POINT('Vertex',(-3.12751451579,-24.8036016125,0.5)) ;
#234=CARTESIAN_POINT('Axis2P3D Location',(0.,0.,0.5)) ;
#247=CARTESIAN_POINT('Control Point',(-8.49999999983,23.5106358911,0.5)) ;
#248=CARTESIAN_POINT('Control Point',(-7.67404710723,23.8092496597,1.32595289805)) ;
#249=CARTESIAN_POINT('Control Point',(-6.83978039402,24.0617069091,2.16021960598)) ;
#250=CARTESIAN_POINT('Control Point',(-6.,24.269322199,3.)) ;
#251=CARTESIAN_POINT('Vertex',(-8.5,23.5106358918,0.5)) ;
#254=CARTESIAN_POINT('Axis2P3D Location',(0.,0.,0.5)) ;
#267=CARTESIAN_POINT('Axis2P3D Location',(0.,0.,2.)) ;
#273=CARTESIAN_POINT('Control Point',(8.49999999983,23.5106358911,0.5)) ;
#274=CARTESIAN_POINT('Control Point',(7.67404710725,23.8092496597,1.32595289804)) ;
#275=CARTESIAN_POINT('Control Point',(6.83978039399,24.0617069091,2.16021960601)) ;
#276=CARTESIAN_POINT('Control Point',(6.,24.269322199,3.)) ;
#277=CARTESIAN_POINT('Vertex',(8.5,23.5106358918,0.5)) ;
#280=CARTESIAN_POINT('Axis2P3D Location',(0.,0.,0.5)) ;
#293=CARTESIAN_POINT('Axis2P3D Location',(0.,0.,0.)) ;
#298=CARTESIAN_POINT('Axis2P3D Location',(1.166396248E-015,-5.83198123998E-016,0.)) ;
#302=CARTESIAN_POINT('Vertex',(3.06514724533,-24.3075065024,0.)) ;
#304=CARTESIAN_POINT('Vertex',(9.,22.7870577302,0.)) ;
#307=CARTESIAN_POINT('Axis2P3D Location',(-1.166396248E-015,1.45799531E-016,0.)) ;
#311=CARTESIAN_POINT('Vertex',(-3.06496422547,-24.3075295803,0.)) ;
#314=CARTESIAN_POINT('Axis2P3D Location',(-1.166396248E-015,1.45799531E-016,0.)) ;
#318=CARTESIAN_POINT('Vertex',(-9.,22.7870577302,0.)) ;
#321=CARTESIAN_POINT('Line Origine',(-9.,9.39352886511,0.)) ;
#326=CARTESIAN_POINT('Line Origine',(9.,9.39352886511,0.)) ;
#339=CARTESIAN_POINT('Axis2P3D Location',(0.,-23.2,0.)) ;
#343=CARTESIAN_POINT('Vertex',(0.883286848543,-22.7174581954,0.)) ;
#345=CARTESIAN_POINT('Vertex',(-0.883286848543,-23.6825418046,0.)) ;
#348=CARTESIAN_POINT('Axis2P3D Location',(0.,-23.2,0.)) ;
#358=CARTESIAN_POINT('Axis2P3D Location',(-9.,-0.365338900488,0.)) ;
#364=CARTESIAN_POINT('Control Point',(-9.,22.7870577302,0.)) ;
#365=CARTESIAN_POINT('Control Point',(-8.83708913425,23.0265583304,0.162910865746)) ;
#366=CARTESIAN_POINT('Control Point',(-8.67046086262,23.2677484206,0.329539137376)) ;
#367=CARTESIAN_POINT('Control Point',(-8.5,23.5106358918,0.5)) ;
#377=CARTESIAN_POINT('Axis2P3D Location',(9.,-0.365338900488,0.)) ;
#383=CARTESIAN_POINT('Control Point',(9.,22.7870577302,-2.77555756156E-017)) ;
#384=CARTESIAN_POINT('Control Point',(8.83708913425,23.0265583304,0.162910865746)) ;
#385=CARTESIAN_POINT('Control Point',(8.67046086262,23.2677484206,0.329539137377)) ;
#386=CARTESIAN_POINT('Control Point',(8.5,23.5106358918,0.5)) ;
#396=CARTESIAN_POINT('Axis2P3D Location',(1.58095758707E-013,3.16191517413E-013,-24.5)) ;
#412=CARTESIAN_POINT('Axis2P3D Location',(0.,-23.2,0.)) ;
#417=CARTESIAN_POINT('Line Origine',(-0.883286848543,-23.6825418046,2.3)) ;
#422=CARTESIAN_POINT('Line Origine',(0.883286848543,-22.7174581954,2.3)) ;
#443=CARTESIAN_POINT('Axis2P3D Location',(0.,0.,0.)) ;
#32=DIRECTION('Axis2P3D Direction',(0.,0.,1.)) ;
#33=DIRECTION('Axis2P3D XDirection',(1.,0.,0.)) ;
#37=DIRECTION('Axis2P3D Direction',(0.,0.,1.)) ;
#46=DIRECTION('Axis2P3D Direction',(0.,0.,1.)) ;
#53=DIRECTION('Axis2P3D Direction',(0.,0.,1.)) ;
#60=DIRECTION('Vector Direction',(0.,-1.,0.)) ;
#67=DIRECTION('Axis2P3D Direction',(0.,0.,1.)) ;
#74=DIRECTION('Vector Direction',(0.,-1.,0.)) ;
#87=DIRECTION('Axis2P3D Direction',(0.,0.,1.)) ;
#96=DIRECTION('Axis2P3D Direction',(0.,0.,1.)) ;
#106=DIRECTION('Axis2P3D Direction',(-1.,0.,0.)) ;
#107=DIRECTION('Axis2P3D XDirection',(0.,-1.,0.)) ;
#111=DIRECTION('Vector Direction',(0.,0.,1.)) ;
#118=DIRECTION('Vector Direction',(0.,0.,1.)) ;
#125=DIRECTION('Vector Direction',(0.,-1.,0.)) ;
#137=DIRECTION('Axis2P3D Direction',(0.,0.,1.)) ;
#138=DIRECTION('Axis2P3D XDirection',(-1.,1.22464679915E-016,0.)) ;
#142=DIRECTION('Axis2P3D Direction',(0.,0.,1.)) ;
#149=DIRECTION('Vector Direction',(0.,0.,1.)) ;
#161=DIRECTION('Axis2P3D Direction',(-1.,0.,0.)) ;
#162=DIRECTION('Axis2P3D XDirection',(0.,-1.,0.)) ;
#166=DIRECTION('Vector Direction',(0.,-1.,0.)) ;
#173=DIRECTION('Vector Direction',(0.,0.,1.)) ;
#185=DIRECTION('Axis2P3D Direction',(-1.48029736617E-016,1.48029736617E-016,-1.)) ;
#186=DIRECTION('Axis2P3D XDirection',(1.10575585496E-016,1.,1.31708901597E-016)) ;
#190=DIRECTION('Vector Direction',(0.707106781187,-2.09345661158E-016,-0.707106781187)) ;
#197=DIRECTION('Axis2P3D Direction',(1.48029736617E-016,-1.63684747972E-032,1.)) ;
#204=DIRECTION('Vector Direction',(-0.707106781187,3.14018491737E-016,-0.707106781187)) ;
#216=DIRECTION('Axis2P3D Direction',(0.,0.,1.)) ;
#217=DIRECTION('Axis2P3D XDirection',(-0.24,0.970772887961,0.)) ;
#221=DIRECTION('Vector Direction',(0.,0.,1.)) ;
#228=DIRECTION('Vector Direction',(0.,0.,1.)) ;
#235=DIRECTION('Axis2P3D Direction',(0.,0.,1.)) ;
#255=DIRECTION('Axis2P3D Direction',(0.,0.,1.)) ;
#268=DIRECTION('Axis2P3D Direction',(0.,0.,1.)) ;
#269=DIRECTION('Axis2P3D XDirection',(0.12510805083,-0.992143122547,0.)) ;
#281=DIRECTION('Axis2P3D Direction',(0.,0.,1.)) ;
#294=DIRECTION('Axis2P3D Direction',(0.,0.,1.)) ;
#295=DIRECTION('Axis2P3D XDirection',(1.,0.,0.)) ;
#299=DIRECTION('Axis2P3D Direction',(0.,0.,1.)) ;
#308=DIRECTION('Axis2P3D Direction',(0.,0.,1.)) ;
#315=DIRECTION('Axis2P3D Direction',(0.,0.,1.)) ;
#322=DIRECTION('Vector Direction',(0.,-1.,0.)) ;
#327=DIRECTION('Vector Direction',(0.,-1.,0.)) ;
#340=DIRECTION('Axis2P3D Direction',(0.,0.,1.)) ;
#349=DIRECTION('Axis2P3D Direction',(0.,0.,1.)) ;
#359=DIRECTION('Axis2P3D Direction',(-0.707106781187,0.,0.707106781187)) ;
#360=DIRECTION('Axis2P3D XDirection',(0.,-1.,0.)) ;
#378=DIRECTION('Axis2P3D Direction',(-0.707106781187,-0.,-0.707106781187)) ;
#379=DIRECTION('Axis2P3D XDirection',(0.,-1.,0.)) ;
#397=DIRECTION('Axis2P3D Direction',(-1.3738528946E-014,-7.95466803474E-015,1.)) ;
#398=DIRECTION('Axis2P3D XDirection',(-0.866025403784,-0.500000000001,-1.59367770932E-014)) ;
#413=DIRECTION('Axis2P3D Direction',(0.,-0.,1.)) ;
#414=DIRECTION('Axis2P3D XDirection',(0.87758256189,0.479425538604,0.)) ;
#418=DIRECTION('Vector Direction',(0.,0.,1.)) ;
#423=DIRECTION('Vector Direction',(0.,0.,1.)) ;
#444=DIRECTION('Axis2P3D Direction',(0.,0.,1.)) ;
#445=DIRECTION('Axis2P3D XDirection',(1.,0.,0.)) ;
#8=PRODUCT_RELATED_PRODUCT_CATEGORY('part',$,(#5)) ;
#7=PRODUCT_CATEGORY('part','specification') ;
#29=STYLED_ITEM(' ',(#28),#21) ;
#451=STYLED_ITEM(' ',(#450),#446) ;
#28=PRESENTATION_STYLE_ASSIGNMENT((#27)) ;
#450=PRESENTATION_STYLE_ASSIGNMENT((#449)) ;
#449=CURVE_STYLE(' ',#447,POSITIVE_LENGTH_MEASURE(0.129999995232),#448) ;
#27=SURFACE_STYLE_USAGE(.BOTH.,#26) ;
#26=SURFACE_SIDE_STYLE(' ',(#25)) ;
#25=SURFACE_STYLE_FILL_AREA(#24) ;
#24=FILL_AREA_STYLE(' ',(#23)) ;
#23=FILL_AREA_STYLE_COLOUR(' ',#22) ;
#61=VECTOR('Line Direction',#60,1.) ;
#75=VECTOR('Line Direction',#74,1.) ;
#112=VECTOR('Line Direction',#111,1.) ;
#119=VECTOR('Line Direction',#118,1.) ;
#126=VECTOR('Line Direction',#125,1.) ;
#150=VECTOR('Line Direction',#149,1.) ;
#167=VECTOR('Line Direction',#166,1.) ;
#174=VECTOR('Line Direction',#173,1.) ;
#191=VECTOR('Line Direction',#190,1.) ;
#205=VECTOR('Line Direction',#204,1.) ;
#222=VECTOR('Line Direction',#221,1.) ;
#229=VECTOR('Line Direction',#228,1.) ;
#323=VECTOR('Line Direction',#322,1.) ;
#328=VECTOR('Line Direction',#327,1.) ;
#419=VECTOR('Line Direction',#418,1.) ;
#424=VECTOR('Line Direction',#423,1.) ;
#15=UNCERTAINTY_MEASURE_WITH_UNIT(LENGTH_MEASURE(0.005),#12,'distance_accuracy_value','CONFUSED CURVE UNCERTAINTY') ;
#442=SHAPE_REPRESENTATION_RELATIONSHIP(' ',' ',#19,#441) ;
#79=ORIENTED_EDGE('',*,*,#44,.T.) ;
#80=ORIENTED_EDGE('',*,*,#51,.T.) ;
#81=ORIENTED_EDGE('',*,*,#58,.T.) ;
#82=ORIENTED_EDGE('',*,*,#65,.T.) ;
#83=ORIENTED_EDGE('',*,*,#72,.T.) ;
#84=ORIENTED_EDGE('',*,*,#77,.T.) ;
#101=ORIENTED_EDGE('',*,*,#94,.F.) ;
#102=ORIENTED_EDGE('',*,*,#99,.F.) ;
#130=ORIENTED_EDGE('',*,*,#116,.T.) ;
#131=ORIENTED_EDGE('',*,*,#65,.F.) ;
#132=ORIENTED_EDGE('',*,*,#123,.F.) ;
#133=ORIENTED_EDGE('',*,*,#128,.T.) ;
#154=ORIENTED_EDGE('',*,*,#147,.T.) ;
#155=ORIENTED_EDGE('',*,*,#152,.T.) ;
#156=ORIENTED_EDGE('',*,*,#72,.F.) ;
#157=ORIENTED_EDGE('',*,*,#116,.F.) ;
#178=ORIENTED_EDGE('',*,*,#171,.T.) ;
#179=ORIENTED_EDGE('',*,*,#176,.T.) ;
#180=ORIENTED_EDGE('',*,*,#77,.F.) ;
#181=ORIENTED_EDGE('',*,*,#152,.F.) ;
#209=ORIENTED_EDGE('',*,*,#195,.T.) ;
#210=ORIENTED_EDGE('',*,*,#202,.T.) ;
#211=ORIENTED_EDGE('',*,*,#207,.F.) ;
#212=ORIENTED_EDGE('',*,*,#147,.F.) ;
#240=ORIENTED_EDGE('',*,*,#226,.T.) ;
#241=ORIENTED_EDGE('',*,*,#51,.F.) ;
#242=ORIENTED_EDGE('',*,*,#233,.F.) ;
#243=ORIENTED_EDGE('',*,*,#238,.T.) ;
#260=ORIENTED_EDGE('',*,*,#233,.T.) ;
#261=ORIENTED_EDGE('',*,*,#44,.F.) ;
#262=ORIENTED_EDGE('',*,*,#176,.F.) ;
#263=ORIENTED_EDGE('',*,*,#253,.F.) ;
#264=ORIENTED_EDGE('',*,*,#258,.T.) ;
#286=ORIENTED_EDGE('',*,*,#279,.F.) ;
#287=ORIENTED_EDGE('',*,*,#123,.T.) ;
#288=ORIENTED_EDGE('',*,*,#58,.F.) ;
#289=ORIENTED_EDGE('',*,*,#226,.F.) ;
#290=ORIENTED_EDGE('',*,*,#284,.T.) ;
#332=ORIENTED_EDGE('',*,*,#306,.F.) ;
#333=ORIENTED_EDGE('',*,*,#313,.F.) ;
#334=ORIENTED_EDGE('',*,*,#320,.F.) ;
#335=ORIENTED_EDGE('',*,*,#325,.F.) ;
#336=ORIENTED_EDGE('',*,*,#202,.F.) ;
#337=ORIENTED_EDGE('',*,*,#330,.F.) ;
#354=ORIENTED_EDGE('',*,*,#347,.T.) ;
#355=ORIENTED_EDGE('',*,*,#352,.T.) ;
#370=ORIENTED_EDGE('',*,*,#368,.F.) ;
#371=ORIENTED_EDGE('',*,*,#253,.T.) ;
#372=ORIENTED_EDGE('',*,*,#171,.F.) ;
#373=ORIENTED_EDGE('',*,*,#207,.T.) ;
#374=ORIENTED_EDGE('',*,*,#325,.T.) ;
#389=ORIENTED_EDGE('',*,*,#330,.T.) ;
#390=ORIENTED_EDGE('',*,*,#195,.F.) ;
#391=ORIENTED_EDGE('',*,*,#128,.F.) ;
#392=ORIENTED_EDGE('',*,*,#279,.T.) ;
#393=ORIENTED_EDGE('',*,*,#387,.F.) ;
#402=ORIENTED_EDGE('',*,*,#313,.T.) ;
#403=ORIENTED_EDGE('',*,*,#306,.T.) ;
#404=ORIENTED_EDGE('',*,*,#387,.T.) ;
#405=ORIENTED_EDGE('',*,*,#284,.F.) ;
#406=ORIENTED_EDGE('',*,*,#238,.F.) ;
#407=ORIENTED_EDGE('',*,*,#258,.F.) ;
#408=ORIENTED_EDGE('',*,*,#368,.T.) ;
#409=ORIENTED_EDGE('',*,*,#320,.T.) ;
#428=ORIENTED_EDGE('',*,*,#94,.T.) ;
#429=ORIENTED_EDGE('',*,*,#421,.T.) ;
#430=ORIENTED_EDGE('',*,*,#347,.F.) ;
#431=ORIENTED_EDGE('',*,*,#426,.F.) ;
#435=ORIENTED_EDGE('',*,*,#99,.T.) ;
#436=ORIENTED_EDGE('',*,*,#426,.T.) ;
#437=ORIENTED_EDGE('',*,*,#352,.F.) ;
#438=ORIENTED_EDGE('',*,*,#421,.F.) ;
#103=FACE_BOUND('',#100,.T.) ;
#356=FACE_BOUND('',#353,.T.) ;
#30=CLOSED_SHELL('Closed Shell',(#104,#135,#159,#183,#214,#245,#266,#292,#357,#376,#395,#411,#433,#440)) ;
#441=ADVANCED_BREP_SHAPE_REPRESENTATION('NONE',(#21),#16) ;
#104=ADVANCED_FACE('PartBody',(#85,#103),#35,.T.) ;
#135=ADVANCED_FACE('PartBody',(#134),#109,.T.) ;
#159=ADVANCED_FACE('PartBody',(#158),#140,.F.) ;
#183=ADVANCED_FACE('PartBody',(#182),#164,.F.) ;
#214=ADVANCED_FACE('PartBody',(#213),#188,.F.) ;
#245=ADVANCED_FACE('PartBody',(#244),#219,.T.) ;
#266=ADVANCED_FACE('PartBody',(#265),#219,.T.) ;
#292=ADVANCED_FACE('PartBody',(#291),#271,.T.) ;
#357=ADVANCED_FACE('PartBody',(#338,#356),#297,.F.) ;
#376=ADVANCED_FACE('PartBody',(#375),#362,.F.) ;
#395=ADVANCED_FACE('PartBody',(#394),#381,.T.) ;
#411=ADVANCED_FACE('PartBody',(#410),#400,.T.) ;
#433=ADVANCED_FACE('PartBody',(#432),#416,.F.) ;
#440=ADVANCED_FACE('PartBody',(#439),#416,.F.) ;
#4=APPLICATION_PROTOCOL_DEFINITION('international standard','automotive_design',2001,#1) ;
#246=B_SPLINE_CURVE_WITH_KNOTS('',3,(#247,#248,#249,#250),.UNSPECIFIED.,.F.,.U.,(4,4),(1.03432714084,6.14942185368),.UNSPECIFIED.) ;
#272=B_SPLINE_CURVE_WITH_KNOTS('',3,(#273,#274,#275,#276),.UNSPECIFIED.,.F.,.U.,(4,4),(1.03432714084,6.1494218535),.UNSPECIFIED.) ;
#363=B_SPLINE_CURVE_WITH_KNOTS('',3,(#364,#365,#366,#367),.UNSPECIFIED.,.F.,.U.,(4,4),(0.,3.17366981986),.UNSPECIFIED.) ;
#382=B_SPLINE_CURVE_WITH_KNOTS('',3,(#383,#384,#385,#386),.UNSPECIFIED.,.F.,.U.,(4,4),(0.,3.17366981986),.UNSPECIFIED.) ;
#21=MANIFOLD_SOLID_BREP('PartBody',#30) ;
#39=CIRCLE('generated circle',#38,25.) ;
#48=CIRCLE('generated circle',#47,25.) ;
#55=CIRCLE('generated circle',#54,25.) ;
#69=CIRCLE('generated circle',#68,6.) ;
#89=CIRCLE('generated circle',#88,1.0065) ;
#98=CIRCLE('generated circle',#97,1.0065) ;
#144=CIRCLE('generated circle',#143,6.) ;
#199=CIRCLE('generated circle',#198,9.) ;
#237=CIRCLE('generated circle',#236,25.) ;
#257=CIRCLE('generated circle',#256,25.) ;
#283=CIRCLE('generated circle',#282,25.) ;
#301=CIRCLE('generated circle',#300,24.5) ;
#310=CIRCLE('generated circle',#309,24.5) ;
#317=CIRCLE('generated circle',#316,24.5) ;
#342=CIRCLE('generated circle',#341,1.0065) ;
#351=CIRCLE('generated circle',#350,1.0065) ;
#22=COLOUR_RGB('Colour',0.823529411765,0.823529411765,1.) ;
#188=CONICAL_SURFACE('Cone',#187,0.,0.785398163397) ;
#400=CONICAL_SURFACE('Cone',#399,0.,0.785398163397) ;
#452=CONSTRUCTIVE_GEOMETRY_REPRESENTATION('supplemental geometry',(#446),#16) ;
#453=CONSTRUCTIVE_GEOMETRY_REPRESENTATION_RELATIONSHIP('supplemental geometry','',#19,#452) ;
#140=CYLINDRICAL_SURFACE('generated cylinder',#139,6.) ;
#219=CYLINDRICAL_SURFACE('generated cylinder',#218,25.) ;
#271=CYLINDRICAL_SURFACE('generated cylinder',#270,25.) ;
#416=CYLINDRICAL_SURFACE('generated cylinder',#415,1.0065) ;
#448=DRAUGHTING_PRE_DEFINED_COLOUR('white') ;
#447=DRAUGHTING_PRE_DEFINED_CURVE_FONT('continuous') ;
#44=EDGE_CURVE('',#41,#43,#39,.T.) ;
#51=EDGE_CURVE('',#43,#50,#48,.T.) ;
#58=EDGE_CURVE('',#50,#57,#55,.T.) ;
#65=EDGE_CURVE('',#57,#64,#62,.T.) ;
#72=EDGE_CURVE('',#64,#71,#69,.F.) ;
#77=EDGE_CURVE('',#71,#41,#76,.F.) ;
#94=EDGE_CURVE('',#91,#93,#89,.T.) ;
#99=EDGE_CURVE('',#93,#91,#98,.T.) ;
#116=EDGE_CURVE('',#115,#64,#113,.T.) ;
#123=EDGE_CURVE('',#122,#57,#120,.T.) ;
#128=EDGE_CURVE('',#122,#115,#127,.T.) ;
#147=EDGE_CURVE('',#115,#146,#144,.F.) ;
#152=EDGE_CURVE('',#146,#71,#151,.T.) ;
#171=EDGE_CURVE('',#146,#170,#168,.F.) ;
#176=EDGE_CURVE('',#170,#41,#175,.T.) ;
#195=EDGE_CURVE('',#115,#194,#192,.T.) ;
#202=EDGE_CURVE('',#194,#201,#199,.F.) ;
#207=EDGE_CURVE('',#146,#201,#206,.T.) ;
#226=EDGE_CURVE('',#225,#50,#223,.T.) ;
#233=EDGE_CURVE('',#232,#43,#230,.T.) ;
#238=EDGE_CURVE('',#232,#225,#237,.T.) ;
#253=EDGE_CURVE('',#252,#170,#246,.T.) ;
#258=EDGE_CURVE('',#252,#232,#257,.T.) ;
#279=EDGE_CURVE('',#122,#278,#272,.F.) ;
#284=EDGE_CURVE('',#225,#278,#283,.T.) ;
#306=EDGE_CURVE('',#303,#305,#301,.T.) ;
#313=EDGE_CURVE('',#312,#303,#310,.T.) ;
#320=EDGE_CURVE('',#319,#312,#317,.T.) ;
#325=EDGE_CURVE('',#201,#319,#324,.F.) ;
#330=EDGE_CURVE('',#305,#194,#329,.T.) ;
#347=EDGE_CURVE('',#344,#346,#342,.T.) ;
#352=EDGE_CURVE('',#346,#344,#351,.T.) ;
#368=EDGE_CURVE('',#252,#319,#363,.F.) ;
#387=EDGE_CURVE('',#305,#278,#382,.T.) ;
#421=EDGE_CURVE('',#93,#346,#420,.F.) ;
#426=EDGE_CURVE('',#91,#344,#425,.F.) ;
#78=EDGE_LOOP('',(#79,#80,#81,#82,#83,#84)) ;
#100=EDGE_LOOP('',(#101,#102)) ;
#129=EDGE_LOOP('',(#130,#131,#132,#133)) ;
#153=EDGE_LOOP('',(#154,#155,#156,#157)) ;
#177=EDGE_LOOP('',(#178,#179,#180,#181)) ;
#208=EDGE_LOOP('',(#209,#210,#211,#212)) ;
#239=EDGE_LOOP('',(#240,#241,#242,#243)) ;
#259=EDGE_LOOP('',(#260,#261,#262,#263,#264)) ;
#285=EDGE_LOOP('',(#286,#287,#288,#289,#290)) ;
#331=EDGE_LOOP('',(#332,#333,#334,#335,#336,#337)) ;
#353=EDGE_LOOP('',(#354,#355)) ;
#369=EDGE_LOOP('',(#370,#371,#372,#373,#374)) ;
#388=EDGE_LOOP('',(#389,#390,#391,#392,#393)) ;
#401=EDGE_LOOP('',(#402,#403,#404,#405,#406,#407,#408,#409)) ;
#427=EDGE_LOOP('',(#428,#429,#430,#431)) ;
#434=EDGE_LOOP('',(#435,#436,#437,#438)) ;
#85=FACE_OUTER_BOUND('',#78,.T.) ;
#134=FACE_OUTER_BOUND('',#129,.T.) ;
#158=FACE_OUTER_BOUND('',#153,.T.) ;
#182=FACE_OUTER_BOUND('',#177,.T.) ;
#213=FACE_OUTER_BOUND('',#208,.T.) ;
#244=FACE_OUTER_BOUND('',#239,.T.) ;
#265=FACE_OUTER_BOUND('',#259,.T.) ;
#291=FACE_OUTER_BOUND('',#285,.T.) ;
#338=FACE_OUTER_BOUND('',#331,.T.) ;
#375=FACE_OUTER_BOUND('',#369,.T.) ;
#394=FACE_OUTER_BOUND('',#388,.T.) ;
#410=FACE_OUTER_BOUND('',#401,.T.) ;
#432=FACE_OUTER_BOUND('',#427,.T.) ;
#439=FACE_OUTER_BOUND('',#434,.T.) ;
#62=LINE('Line',#59,#61) ;
#76=LINE('Line',#73,#75) ;
#113=LINE('Line',#110,#112) ;
#120=LINE('Line',#117,#119) ;
#127=LINE('Line',#124,#126) ;
#151=LINE('Line',#148,#150) ;
#168=LINE('Line',#165,#167) ;
#175=LINE('Line',#172,#174) ;
#192=LINE('Line',#189,#191) ;
#206=LINE('Line',#203,#205) ;
#223=LINE('Line',#220,#222) ;
#230=LINE('Line',#227,#229) ;
#324=LINE('Line',#321,#323) ;
#329=LINE('Line',#326,#328) ;
#420=LINE('Line',#417,#419) ;
#425=LINE('Line',#422,#424) ;
#35=PLANE('',#34) ;
#109=PLANE('',#108) ;
#164=PLANE('',#163) ;
#297=PLANE('',#296) ;
#362=PLANE('',#361) ;
#381=PLANE('',#380) ;
#9=PRODUCT_CATEGORY_RELATIONSHIP(' ',' ',#7,#8) ;
#6=PRODUCT_DEFINITION_FORMATION_WITH_SPECIFIED_SOURCE('',' ',#5,.NOT_KNOWN.) ;
#20=SHAPE_DEFINITION_REPRESENTATION(#11,#19) ;
#41=VERTEX_POINT('',#40) ;
#43=VERTEX_POINT('',#42) ;
#50=VERTEX_POINT('',#49) ;
#57=VERTEX_POINT('',#56) ;
#64=VERTEX_POINT('',#63) ;
#71=VERTEX_POINT('',#70) ;
#91=VERTEX_POINT('',#90) ;
#93=VERTEX_POINT('',#92) ;
#115=VERTEX_POINT('',#114) ;
#122=VERTEX_POINT('',#121) ;
#146=VERTEX_POINT('',#145) ;
#170=VERTEX_POINT('',#169) ;
#194=VERTEX_POINT('',#193) ;
#201=VERTEX_POINT('',#200) ;
#225=VERTEX_POINT('',#224) ;
#232=VERTEX_POINT('',#231) ;
#252=VERTEX_POINT('',#251) ;
#278=VERTEX_POINT('',#277) ;
#303=VERTEX_POINT('',#302) ;
#305=VERTEX_POINT('',#304) ;
#312=VERTEX_POINT('',#311) ;
#319=VERTEX_POINT('',#318) ;
#344=VERTEX_POINT('',#343) ;
#346=VERTEX_POINT('',#345) ;
#12=(LENGTH_UNIT()NAMED_UNIT(*)SI_UNIT(.MILLI.,.METRE.)) ;
#13=(NAMED_UNIT(*)PLANE_ANGLE_UNIT()SI_UNIT($,.RADIAN.)) ;
#14=(NAMED_UNIT(*)SI_UNIT($,.STERADIAN.)SOLID_ANGLE_UNIT()) ;
#16=(GEOMETRIC_REPRESENTATION_CONTEXT(3)GLOBAL_UNCERTAINTY_ASSIGNED_CONTEXT((#15))GLOBAL_UNIT_ASSIGNED_CONTEXT((#12,#13,#14))REPRESENTATION_CONTEXT(' ',' ')) ;
ENDSEC;
END-ISO-10303-21;
