ISO-10303-21;
HEADER;
FILE_DESCRIPTION(('CATIA V5 STEP Exchange'),'2;1');

FILE_NAME('C:\\ENTREPRISE\\LOCAL\\Eoliene\\CAO\\EOLX1.1 Rotor 2 plans Engrenages & Roue libre\\EOLX1.1-D-200-004_A.stp','2020-01-30T22:07:21+00:00',('none'),('none'),'CATIA Version 5 Release 21 GA (IN-10)','CATIA V5 STEP AP203','none');

FILE_SCHEMA(('CONFIG_CONTROL_DESIGN'));

ENDSEC;
/* file written by CATIA V5R21 */
DATA;
#5=PRODUCT('EOLX1.1-D-200-004_A','','',(#2)) ;
#1=APPLICATION_CONTEXT('configuration controlled 3D design of mechanical parts and assemblies') ;
#14=PRODUCT_DEFINITION('',' ',#6,#3) ;
#16=SECURITY_CLASSIFICATION(' ',' ',#15) ;
#15=SECURITY_CLASSIFICATION_LEVEL('unclassified') ;
#47=CARTESIAN_POINT(' ',(0.,0.,0.)) ;
#52=CARTESIAN_POINT('Axis2P3D Location',(0.,0.,10.)) ;
#57=CARTESIAN_POINT('Axis2P3D Location',(0.,0.,20.)) ;
#61=CARTESIAN_POINT('Vertex',(5.27368092465,9.65340818079,20.)) ;
#63=CARTESIAN_POINT('Vertex',(-5.27368092465,-9.65340818079,20.)) ;
#66=CARTESIAN_POINT('Line Origine',(5.27368092465,9.65340818079,10.)) ;
#70=CARTESIAN_POINT('Vertex',(5.27368092465,9.65340818079,1.7763568394E-015)) ;
#73=CARTESIAN_POINT('Axis2P3D Location',(0.,0.,1.7763568394E-015)) ;
#77=CARTESIAN_POINT('Vertex',(-5.27368092465,-9.65340818079,1.7763568394E-015)) ;
#80=CARTESIAN_POINT('Line Origine',(-5.27368092465,-9.65340818079,10.)) ;
#92=CARTESIAN_POINT('Axis2P3D Location',(0.,0.,20.)) ;
#97=CARTESIAN_POINT('Axis2P3D Location',(0.,0.,1.7763568394E-015)) ;
#109=CARTESIAN_POINT('Axis2P3D Location',(0.,0.,7.1054273576E-015)) ;
#114=CARTESIAN_POINT('Axis2P3D Location',(0.,0.,7.1054273576E-015)) ;
#118=CARTESIAN_POINT('Vertex',(8.38994692557,15.3576948331,7.1054273576E-015)) ;
#120=CARTESIAN_POINT('Vertex',(-8.38994692557,-15.3576948331,7.1054273576E-015)) ;
#123=CARTESIAN_POINT('Line Origine',(8.50980331022,15.5770904736,0.433012701892)) ;
#127=CARTESIAN_POINT('Vertex',(8.62965969488,15.796486114,0.866025403784)) ;
#130=CARTESIAN_POINT('Axis2P3D Location',(0.,0.,0.866025403784)) ;
#134=CARTESIAN_POINT('Vertex',(-8.62965969488,-15.796486114,0.866025403784)) ;
#137=CARTESIAN_POINT('Line Origine',(-8.50980331022,-15.5770904736,0.433012701892)) ;
#149=CARTESIAN_POINT('Axis2P3D Location',(0.,0.,7.1054273576E-015)) ;
#154=CARTESIAN_POINT('Axis2P3D Location',(0.,0.,0.866025403784)) ;
#166=CARTESIAN_POINT('Axis2P3D Location',(0.,0.,10.)) ;
#171=CARTESIAN_POINT('Line Origine',(8.62965969488,15.796486114,10.)) ;
#175=CARTESIAN_POINT('Vertex',(8.62965969488,15.796486114,19.1339745962)) ;
#178=CARTESIAN_POINT('Axis2P3D Location',(0.,0.,19.1339745962)) ;
#182=CARTESIAN_POINT('Vertex',(-8.62965969488,-15.796486114,19.1339745962)) ;
#185=CARTESIAN_POINT('Line Origine',(-8.62965969488,-15.796486114,10.)) ;
#197=CARTESIAN_POINT('Axis2P3D Location',(0.,0.,19.1339745962)) ;
#209=CARTESIAN_POINT('Axis2P3D Location',(0.,0.,20.)) ;
#214=CARTESIAN_POINT('Line Origine',(8.50980331022,15.5770904736,19.5669872981)) ;
#218=CARTESIAN_POINT('Vertex',(8.38994692557,15.3576948331,20.)) ;
#221=CARTESIAN_POINT('Axis2P3D Location',(0.,0.,20.)) ;
#225=CARTESIAN_POINT('Vertex',(-8.38994692557,-15.3576948331,20.)) ;
#228=CARTESIAN_POINT('Line Origine',(-8.50980331022,-15.5770904736,19.5669872981)) ;
#240=CARTESIAN_POINT('Axis2P3D Location',(0.,0.,20.)) ;
#252=CARTESIAN_POINT('Axis2P3D Location',(0.,17.5,0.)) ;
#266=CARTESIAN_POINT('Axis2P3D Location',(0.,11.,20.)) ;
#53=DIRECTION('Axis2P3D Direction',(0.,0.,-1.)) ;
#54=DIRECTION('Axis2P3D XDirection',(0.479425538604,0.87758256189,0.)) ;
#58=DIRECTION('Axis2P3D Direction',(0.,0.,-1.)) ;
#67=DIRECTION('Vector Direction',(0.,0.,-1.)) ;
#74=DIRECTION('Axis2P3D Direction',(0.,0.,-1.)) ;
#81=DIRECTION('Vector Direction',(0.,0.,-1.)) ;
#93=DIRECTION('Axis2P3D Direction',(0.,0.,-1.)) ;
#98=DIRECTION('Axis2P3D Direction',(0.,0.,-1.)) ;
#110=DIRECTION('Axis2P3D Direction',(-0.,-0.,1.)) ;
#111=DIRECTION('Axis2P3D XDirection',(0.479425538604,0.87758256189,0.)) ;
#115=DIRECTION('Axis2P3D Direction',(-0.,0.,1.)) ;
#124=DIRECTION('Vector Direction',(0.239712769302,0.438791280945,0.866025403784)) ;
#131=DIRECTION('Axis2P3D Direction',(-0.,0.,1.)) ;
#138=DIRECTION('Vector Direction',(-0.239712769302,-0.438791280945,0.866025403784)) ;
#150=DIRECTION('Axis2P3D Direction',(-0.,0.,1.)) ;
#155=DIRECTION('Axis2P3D Direction',(-0.,0.,1.)) ;
#167=DIRECTION('Axis2P3D Direction',(0.,0.,-1.)) ;
#168=DIRECTION('Axis2P3D XDirection',(0.479425538604,0.87758256189,0.)) ;
#172=DIRECTION('Vector Direction',(0.,0.,-1.)) ;
#179=DIRECTION('Axis2P3D Direction',(0.,0.,-1.)) ;
#186=DIRECTION('Vector Direction',(0.,0.,-1.)) ;
#198=DIRECTION('Axis2P3D Direction',(0.,0.,-1.)) ;
#210=DIRECTION('Axis2P3D Direction',(0.,0.,-1.)) ;
#211=DIRECTION('Axis2P3D XDirection',(0.479425538604,0.87758256189,0.)) ;
#215=DIRECTION('Vector Direction',(0.239712769302,0.438791280945,-0.866025403784)) ;
#222=DIRECTION('Axis2P3D Direction',(0.,0.,-1.)) ;
#229=DIRECTION('Vector Direction',(-0.239712769302,-0.438791280945,-0.866025403784)) ;
#241=DIRECTION('Axis2P3D Direction',(0.,0.,-1.)) ;
#253=DIRECTION('Axis2P3D Direction',(0.,0.,-1.)) ;
#254=DIRECTION('Axis2P3D XDirection',(1.,0.,0.)) ;
#267=DIRECTION('Axis2P3D Direction',(0.,0.,-1.)) ;
#268=DIRECTION('Axis2P3D XDirection',(1.,0.,0.)) ;
#48=AXIS2_PLACEMENT_3D(' ',#47,$,$) ;
#55=AXIS2_PLACEMENT_3D('Cylinder Axis2P3D',#52,#53,#54) ;
#59=AXIS2_PLACEMENT_3D('Circle Axis2P3D',#57,#58,$) ;
#75=AXIS2_PLACEMENT_3D('Circle Axis2P3D',#73,#74,$) ;
#94=AXIS2_PLACEMENT_3D('Circle Axis2P3D',#92,#93,$) ;
#99=AXIS2_PLACEMENT_3D('Circle Axis2P3D',#97,#98,$) ;
#112=AXIS2_PLACEMENT_3D('Cone Axis2P3D',#109,#110,#111) ;
#116=AXIS2_PLACEMENT_3D('Circle Axis2P3D',#114,#115,$) ;
#132=AXIS2_PLACEMENT_3D('Circle Axis2P3D',#130,#131,$) ;
#151=AXIS2_PLACEMENT_3D('Circle Axis2P3D',#149,#150,$) ;
#156=AXIS2_PLACEMENT_3D('Circle Axis2P3D',#154,#155,$) ;
#169=AXIS2_PLACEMENT_3D('Cylinder Axis2P3D',#166,#167,#168) ;
#180=AXIS2_PLACEMENT_3D('Circle Axis2P3D',#178,#179,$) ;
#199=AXIS2_PLACEMENT_3D('Circle Axis2P3D',#197,#198,$) ;
#212=AXIS2_PLACEMENT_3D('Cone Axis2P3D',#209,#210,#211) ;
#223=AXIS2_PLACEMENT_3D('Circle Axis2P3D',#221,#222,$) ;
#242=AXIS2_PLACEMENT_3D('Circle Axis2P3D',#240,#241,$) ;
#255=AXIS2_PLACEMENT_3D('Plane Axis2P3D',#252,#253,#254) ;
#269=AXIS2_PLACEMENT_3D('Plane Axis2P3D',#266,#267,#268) ;
#40=PRODUCT_DEFINITION_SHAPE(' ',' ',#14) ;
#31=APPROVAL_PERSON_ORGANIZATION(#25,#21,#19) ;
#25=PERSON_AND_ORGANIZATION(#22,#23) ;
#22=PERSON(' ',' ',' ',$,$,$) ;
#23=ORGANIZATION(' ',' ',' ') ;
#21=APPROVAL(#20,' ') ;
#20=APPROVAL_STATUS('not_yet_approved') ;
#19=APPROVAL_ROLE('APPROVER') ;
#13=DATE_AND_TIME(#11,#12) ;
#12=LOCAL_TIME(23,7,21.,#10) ;
#10=COORDINATED_UNIVERSAL_TIME_OFFSET(0,0,.AHEAD.) ;
#86=ORIENTED_EDGE('',*,*,#65,.F.) ;
#87=ORIENTED_EDGE('',*,*,#72,.T.) ;
#88=ORIENTED_EDGE('',*,*,#79,.T.) ;
#89=ORIENTED_EDGE('',*,*,#84,.F.) ;
#103=ORIENTED_EDGE('',*,*,#96,.F.) ;
#104=ORIENTED_EDGE('',*,*,#84,.T.) ;
#105=ORIENTED_EDGE('',*,*,#101,.T.) ;
#106=ORIENTED_EDGE('',*,*,#72,.F.) ;
#143=ORIENTED_EDGE('',*,*,#122,.F.) ;
#144=ORIENTED_EDGE('',*,*,#129,.T.) ;
#145=ORIENTED_EDGE('',*,*,#136,.T.) ;
#146=ORIENTED_EDGE('',*,*,#141,.F.) ;
#160=ORIENTED_EDGE('',*,*,#153,.F.) ;
#161=ORIENTED_EDGE('',*,*,#141,.T.) ;
#162=ORIENTED_EDGE('',*,*,#158,.T.) ;
#163=ORIENTED_EDGE('',*,*,#129,.F.) ;
#191=ORIENTED_EDGE('',*,*,#136,.F.) ;
#192=ORIENTED_EDGE('',*,*,#177,.T.) ;
#193=ORIENTED_EDGE('',*,*,#184,.T.) ;
#194=ORIENTED_EDGE('',*,*,#189,.F.) ;
#203=ORIENTED_EDGE('',*,*,#158,.F.) ;
#204=ORIENTED_EDGE('',*,*,#189,.T.) ;
#205=ORIENTED_EDGE('',*,*,#201,.T.) ;
#206=ORIENTED_EDGE('',*,*,#177,.F.) ;
#234=ORIENTED_EDGE('',*,*,#184,.F.) ;
#235=ORIENTED_EDGE('',*,*,#220,.T.) ;
#236=ORIENTED_EDGE('',*,*,#227,.T.) ;
#237=ORIENTED_EDGE('',*,*,#232,.F.) ;
#246=ORIENTED_EDGE('',*,*,#201,.F.) ;
#247=ORIENTED_EDGE('',*,*,#232,.T.) ;
#248=ORIENTED_EDGE('',*,*,#244,.T.) ;
#249=ORIENTED_EDGE('',*,*,#220,.F.) ;
#258=ORIENTED_EDGE('',*,*,#153,.T.) ;
#259=ORIENTED_EDGE('',*,*,#122,.T.) ;
#262=ORIENTED_EDGE('',*,*,#79,.F.) ;
#263=ORIENTED_EDGE('',*,*,#101,.F.) ;
#272=ORIENTED_EDGE('',*,*,#227,.F.) ;
#273=ORIENTED_EDGE('',*,*,#244,.F.) ;
#276=ORIENTED_EDGE('',*,*,#96,.T.) ;
#277=ORIENTED_EDGE('',*,*,#65,.T.) ;
#264=FACE_BOUND('',#261,.T.) ;
#278=FACE_BOUND('',#275,.T.) ;
#51=CLOSED_SHELL('Closed Shell',(#91,#108,#148,#165,#196,#208,#239,#251,#265,#279)) ;
#68=VECTOR('Line Direction',#67,1.) ;
#82=VECTOR('Line Direction',#81,1.) ;
#125=VECTOR('Line Direction',#124,1.) ;
#139=VECTOR('Line Direction',#138,1.) ;
#173=VECTOR('Line Direction',#172,1.) ;
#187=VECTOR('Line Direction',#186,1.) ;
#216=VECTOR('Line Direction',#215,1.) ;
#230=VECTOR('Line Direction',#229,1.) ;
#281=ADVANCED_BREP_SHAPE_REPRESENTATION('NONE',(#280),#46) ;
#49=SHAPE_REPRESENTATION(' ',(#48),#46) ;
#91=ADVANCED_FACE('PartBody',(#90),#56,.F.) ;
#108=ADVANCED_FACE('PartBody',(#107),#56,.F.) ;
#148=ADVANCED_FACE('PartBody',(#147),#113,.T.) ;
#165=ADVANCED_FACE('PartBody',(#164),#113,.T.) ;
#196=ADVANCED_FACE('PartBody',(#195),#170,.T.) ;
#208=ADVANCED_FACE('PartBody',(#207),#170,.T.) ;
#239=ADVANCED_FACE('PartBody',(#238),#213,.T.) ;
#251=ADVANCED_FACE('PartBody',(#250),#213,.T.) ;
#265=ADVANCED_FACE('PartBody',(#260,#264),#256,.T.) ;
#279=ADVANCED_FACE('PartBody',(#274,#278),#270,.F.) ;
#4=APPLICATION_PROTOCOL_DEFINITION('international standard','config_control_design',1994,#1) ;
#32=APPROVAL_DATE_TIME(#13,#21) ;
#280=MANIFOLD_SOLID_BREP('PartBody',#51) ;
#11=CALENDAR_DATE(2020,30,1) ;
#30=CC_DESIGN_APPROVAL(#21,(#16,#6,#14)) ;
#18=CC_DESIGN_DATE_AND_TIME_ASSIGNMENT(#13,#17,(#16)) ;
#29=CC_DESIGN_DATE_AND_TIME_ASSIGNMENT(#13,#28,(#14)) ;
#17=DATE_TIME_ROLE('classification_date') ;
#28=DATE_TIME_ROLE('creation_date') ;
#27=CC_DESIGN_PERSON_AND_ORGANIZATION_ASSIGNMENT(#25,#26,(#16)) ;
#33=CC_DESIGN_PERSON_AND_ORGANIZATION_ASSIGNMENT(#25,#34,(#6)) ;
#35=CC_DESIGN_PERSON_AND_ORGANIZATION_ASSIGNMENT(#25,#36,(#6,#14)) ;
#37=CC_DESIGN_PERSON_AND_ORGANIZATION_ASSIGNMENT(#25,#38,(#5)) ;
#26=PERSON_AND_ORGANIZATION_ROLE('classification_officer') ;
#34=PERSON_AND_ORGANIZATION_ROLE('design_supplier') ;
#36=PERSON_AND_ORGANIZATION_ROLE('creator') ;
#38=PERSON_AND_ORGANIZATION_ROLE('design_owner') ;
#39=CC_DESIGN_SECURITY_CLASSIFICATION(#16,(#6)) ;
#60=CIRCLE('generated circle',#59,11.) ;
#76=CIRCLE('generated circle',#75,11.) ;
#95=CIRCLE('generated circle',#94,11.) ;
#100=CIRCLE('generated circle',#99,11.) ;
#117=CIRCLE('generated circle',#116,17.5) ;
#133=CIRCLE('generated circle',#132,18.) ;
#152=CIRCLE('generated circle',#151,17.5) ;
#157=CIRCLE('generated circle',#156,18.) ;
#181=CIRCLE('generated circle',#180,18.) ;
#200=CIRCLE('generated circle',#199,18.) ;
#224=CIRCLE('generated circle',#223,17.5) ;
#243=CIRCLE('generated circle',#242,17.5) ;
#113=CONICAL_SURFACE('Cone',#112,17.5,0.523598775598) ;
#213=CONICAL_SURFACE('Cone',#212,17.5,0.523598775598) ;
#282=SHAPE_REPRESENTATION_RELATIONSHIP(' ',' ',#49,#281) ;
#56=CYLINDRICAL_SURFACE('generated cylinder',#55,11.) ;
#170=CYLINDRICAL_SURFACE('generated cylinder',#169,18.) ;
#3=DESIGN_CONTEXT(' ',#1,'design') ;
#65=EDGE_CURVE('',#62,#64,#60,.T.) ;
#72=EDGE_CURVE('',#62,#71,#69,.T.) ;
#79=EDGE_CURVE('',#71,#78,#76,.T.) ;
#84=EDGE_CURVE('',#64,#78,#83,.T.) ;
#96=EDGE_CURVE('',#64,#62,#95,.T.) ;
#101=EDGE_CURVE('',#78,#71,#100,.T.) ;
#122=EDGE_CURVE('',#119,#121,#117,.F.) ;
#129=EDGE_CURVE('',#119,#128,#126,.T.) ;
#136=EDGE_CURVE('',#128,#135,#133,.F.) ;
#141=EDGE_CURVE('',#121,#135,#140,.T.) ;
#153=EDGE_CURVE('',#121,#119,#152,.F.) ;
#158=EDGE_CURVE('',#135,#128,#157,.F.) ;
#177=EDGE_CURVE('',#128,#176,#174,.F.) ;
#184=EDGE_CURVE('',#176,#183,#181,.T.) ;
#189=EDGE_CURVE('',#135,#183,#188,.F.) ;
#201=EDGE_CURVE('',#183,#176,#200,.T.) ;
#220=EDGE_CURVE('',#176,#219,#217,.F.) ;
#227=EDGE_CURVE('',#219,#226,#224,.T.) ;
#232=EDGE_CURVE('',#183,#226,#231,.F.) ;
#244=EDGE_CURVE('',#226,#219,#243,.T.) ;
#85=EDGE_LOOP('',(#86,#87,#88,#89)) ;
#102=EDGE_LOOP('',(#103,#104,#105,#106)) ;
#142=EDGE_LOOP('',(#143,#144,#145,#146)) ;
#159=EDGE_LOOP('',(#160,#161,#162,#163)) ;
#190=EDGE_LOOP('',(#191,#192,#193,#194)) ;
#202=EDGE_LOOP('',(#203,#204,#205,#206)) ;
#233=EDGE_LOOP('',(#234,#235,#236,#237)) ;
#245=EDGE_LOOP('',(#246,#247,#248,#249)) ;
#257=EDGE_LOOP('',(#258,#259)) ;
#261=EDGE_LOOP('',(#262,#263)) ;
#271=EDGE_LOOP('',(#272,#273)) ;
#275=EDGE_LOOP('',(#276,#277)) ;
#90=FACE_OUTER_BOUND('',#85,.T.) ;
#107=FACE_OUTER_BOUND('',#102,.T.) ;
#147=FACE_OUTER_BOUND('',#142,.T.) ;
#164=FACE_OUTER_BOUND('',#159,.T.) ;
#195=FACE_OUTER_BOUND('',#190,.T.) ;
#207=FACE_OUTER_BOUND('',#202,.T.) ;
#238=FACE_OUTER_BOUND('',#233,.T.) ;
#250=FACE_OUTER_BOUND('',#245,.T.) ;
#260=FACE_OUTER_BOUND('',#257,.T.) ;
#274=FACE_OUTER_BOUND('',#271,.T.) ;
#45=UNCERTAINTY_MEASURE_WITH_UNIT(LENGTH_MEASURE(0.005),#41,'distance_accuracy_value','CONFUSED CURVE UNCERTAINTY') ;
#69=LINE('Line',#66,#68) ;
#83=LINE('Line',#80,#82) ;
#126=LINE('Line',#123,#125) ;
#140=LINE('Line',#137,#139) ;
#174=LINE('Line',#171,#173) ;
#188=LINE('Line',#185,#187) ;
#217=LINE('Line',#214,#216) ;
#231=LINE('Line',#228,#230) ;
#2=MECHANICAL_CONTEXT(' ',#1,'mechanical') ;
#24=PERSONAL_ADDRESS(' ',' ',' ',' ',' ',' ',' ',' ',' ',' ',' ',' ',(#22),' ') ;
#256=PLANE('',#255) ;
#270=PLANE('',#269) ;
#43=PLANE_ANGLE_MEASURE_WITH_UNIT(PLANE_ANGLE_MEASURE(0.0174532925199),#42) ;
#7=PRODUCT_CATEGORY('part',$) ;
#9=PRODUCT_CATEGORY_RELATIONSHIP(' ',' ',#7,#8) ;
#6=PRODUCT_DEFINITION_FORMATION_WITH_SPECIFIED_SOURCE('',' ',#5,.NOT_KNOWN.) ;
#8=PRODUCT_RELATED_PRODUCT_CATEGORY('detail',$,(#5)) ;
#50=SHAPE_DEFINITION_REPRESENTATION(#40,#49) ;
#62=VERTEX_POINT('',#61) ;
#64=VERTEX_POINT('',#63) ;
#71=VERTEX_POINT('',#70) ;
#78=VERTEX_POINT('',#77) ;
#119=VERTEX_POINT('',#118) ;
#121=VERTEX_POINT('',#120) ;
#128=VERTEX_POINT('',#127) ;
#135=VERTEX_POINT('',#134) ;
#176=VERTEX_POINT('',#175) ;
#183=VERTEX_POINT('',#182) ;
#219=VERTEX_POINT('',#218) ;
#226=VERTEX_POINT('',#225) ;
#41=(LENGTH_UNIT()NAMED_UNIT(*)SI_UNIT(.MILLI.,.METRE.)) ;
#42=(NAMED_UNIT(*)PLANE_ANGLE_UNIT()SI_UNIT($,.RADIAN.)) ;
#44=(NAMED_UNIT(*)SI_UNIT($,.STERADIAN.)SOLID_ANGLE_UNIT()) ;
#46=(GEOMETRIC_REPRESENTATION_CONTEXT(3)GLOBAL_UNCERTAINTY_ASSIGNED_CONTEXT((#45))GLOBAL_UNIT_ASSIGNED_CONTEXT((#41,#42,#44))REPRESENTATION_CONTEXT(' ',' ')) ;
ENDSEC;
END-ISO-10303-21;
