ISO-10303-21;
HEADER;
FILE_DESCRIPTION(('CATIA V5 STEP Exchange'),'2;1');

FILE_NAME('C:\\ENTREPRISE\\LOCAL\\Eoliene\\CAO\\EOLX1.1 Rotor 2 plans Engrenages & Roue libre\\EOLX1.1-D-310-002_A.stp','2020-01-30T22:09:23+00:00',('none'),('none'),'CATIA Version 5 Release 21 GA (IN-10)','CATIA V5 STEP AP203','none');

FILE_SCHEMA(('CONFIG_CONTROL_DESIGN'));

ENDSEC;
/* file written by CATIA V5R21 */
DATA;
#5=PRODUCT('EOLX1.1-D-310-002_A','','',(#2)) ;
#1=APPLICATION_CONTEXT('configuration controlled 3D design of mechanical parts and assemblies') ;
#14=PRODUCT_DEFINITION('',' ',#6,#3) ;
#16=SECURITY_CLASSIFICATION(' ',' ',#15) ;
#15=SECURITY_CLASSIFICATION_LEVEL('unclassified') ;
#47=CARTESIAN_POINT(' ',(0.,0.,0.)) ;
#52=CARTESIAN_POINT('Axis2P3D Location',(0.,0.,12.5)) ;
#57=CARTESIAN_POINT('Axis2P3D Location',(0.,0.,0.)) ;
#61=CARTESIAN_POINT('Vertex',(0.,-5.99281923255,-10.9697820236)) ;
#63=CARTESIAN_POINT('Vertex',(0.,5.99281923255,10.9697820236)) ;
#66=CARTESIAN_POINT('Axis2P3D Location',(0.,0.,0.)) ;
#75=CARTESIAN_POINT('Axis2P3D Location',(0.,0.,0.)) ;
#79=CARTESIAN_POINT('Vertex',(0.,5.51339369395,10.0921994617)) ;
#81=CARTESIAN_POINT('Vertex',(0.,-5.51339369395,-10.0921994617)) ;
#84=CARTESIAN_POINT('Axis2P3D Location',(0.,0.,0.)) ;
#94=CARTESIAN_POINT('Axis2P3D Location',(1400.,0.,11.5)) ;
#99=CARTESIAN_POINT('Axis2P3D Location',(1400.,0.,0.)) ;
#103=CARTESIAN_POINT('Vertex',(1400.,5.99281923255,10.9697820236)) ;
#105=CARTESIAN_POINT('Vertex',(1400.,-5.99281923255,-10.9697820236)) ;
#108=CARTESIAN_POINT('Axis2P3D Location',(1400.,0.,0.)) ;
#117=CARTESIAN_POINT('Axis2P3D Location',(1400.,0.,0.)) ;
#121=CARTESIAN_POINT('Vertex',(1400.,-5.51339369395,-10.0921994617)) ;
#123=CARTESIAN_POINT('Vertex',(1400.,5.51339369395,10.0921994617)) ;
#126=CARTESIAN_POINT('Axis2P3D Location',(1400.,0.,0.)) ;
#136=CARTESIAN_POINT('Axis2P3D Location',(700.,0.,0.)) ;
#141=CARTESIAN_POINT('Line Origine',(700.,-5.99281923255,-10.9697820236)) ;
#146=CARTESIAN_POINT('Line Origine',(700.,5.99281923255,10.9697820236)) ;
#158=CARTESIAN_POINT('Control Point',(17.55,-2.75335310107E-014,12.5)) ;
#159=CARTESIAN_POINT('Control Point',(17.55,0.515175301955,12.5)) ;
#160=CARTESIAN_POINT('Control Point',(17.4412272165,1.03034934302,12.4734594408)) ;
#161=CARTESIAN_POINT('Control Point',(17.2237040515,1.51226000897,12.4200992237)) ;
#162=CARTESIAN_POINT('Control Point',(16.7059937752,2.21564001283,12.3104311291)) ;
#163=CARTESIAN_POINT('Control Point',(15.9877929595,2.69611047766,12.207808551)) ;
#164=CARTESIAN_POINT('Control Point',(15.6726691669,2.8476321535,12.1721057936)) ;
#165=CARTESIAN_POINT('Control Point',(14.7957155104,3.12384531037,12.1045187192)) ;
#166=CARTESIAN_POINT('Control Point',(13.8599608149,3.06463958879,12.1177019325)) ;
#167=CARTESIAN_POINT('Control Point',(13.3002196412,2.89011067514,12.1652313273)) ;
#168=CARTESIAN_POINT('Control Point',(12.3694623626,2.33922096986,12.2936507436)) ;
#169=CARTESIAN_POINT('Control Point',(11.752754768,1.45894048912,12.425895718)) ;
#170=CARTESIAN_POINT('Control Point',(11.550893182,0.992328138829,12.4753820636)) ;
#171=CARTESIAN_POINT('Control Point',(11.45,0.496164654187,12.5)) ;
#172=CARTESIAN_POINT('Control Point',(11.45,-5.33758669666E-015,12.5)) ;
#173=CARTESIAN_POINT('Vertex',(17.55,0.,12.5)) ;
#175=CARTESIAN_POINT('Vertex',(11.45,3.7351727374E-016,12.5)) ;
#179=CARTESIAN_POINT('Control Point',(11.45,-5.3290705182E-015,12.5)) ;
#180=CARTESIAN_POINT('Control Point',(11.45,-0.515175302177,12.5)) ;
#181=CARTESIAN_POINT('Control Point',(11.5587727836,-1.03034934347,12.4734594408)) ;
#182=CARTESIAN_POINT('Control Point',(11.7762959483,-1.51226000863,12.4200992238)) ;
#183=CARTESIAN_POINT('Control Point',(12.2940062246,-2.21564001276,12.3104311291)) ;
#184=CARTESIAN_POINT('Control Point',(13.0122070406,-2.69611047771,12.207808551)) ;
#185=CARTESIAN_POINT('Control Point',(13.3273308331,-2.84763215348,12.1721057936)) ;
#186=CARTESIAN_POINT('Control Point',(14.2042844894,-3.12384531033,12.1045187192)) ;
#187=CARTESIAN_POINT('Control Point',(15.1400391848,-3.06463958881,12.1177019325)) ;
#188=CARTESIAN_POINT('Control Point',(15.6997803591,-2.89011067497,12.1652313273)) ;
#189=CARTESIAN_POINT('Control Point',(16.6305376376,-2.33922096964,12.2936507437)) ;
#190=CARTESIAN_POINT('Control Point',(17.2472452322,-1.45894048882,12.4258957181)) ;
#191=CARTESIAN_POINT('Control Point',(17.4491068179,-0.992328139178,12.4753820636)) ;
#192=CARTESIAN_POINT('Control Point',(17.55,-0.496164654361,12.5)) ;
#193=CARTESIAN_POINT('Control Point',(17.55,-2.75250148326E-014,12.5)) ;
#207=CARTESIAN_POINT('Control Point',(11.45,3.77475828373E-015,-12.5)) ;
#208=CARTESIAN_POINT('Control Point',(11.45,-0.515175302192,-12.5)) ;
#209=CARTESIAN_POINT('Control Point',(11.5587727836,-1.0303493435,-12.4734594408)) ;
#210=CARTESIAN_POINT('Control Point',(11.7762959483,-1.51226000862,-12.4200992238)) ;
#211=CARTESIAN_POINT('Control Point',(12.2940062245,-2.21564001255,-12.3104311291)) ;
#212=CARTESIAN_POINT('Control Point',(13.0122070402,-2.69611047743,-12.207808551)) ;
#213=CARTESIAN_POINT('Control Point',(13.3273308336,-2.84763215365,-12.1721057936)) ;
#214=CARTESIAN_POINT('Control Point',(14.2042844898,-3.12384531033,-12.1045187192)) ;
#215=CARTESIAN_POINT('Control Point',(15.140039185,-3.06463958879,-12.1177019325)) ;
#216=CARTESIAN_POINT('Control Point',(15.699780359,-2.89011067502,-12.1652313273)) ;
#217=CARTESIAN_POINT('Control Point',(16.6305376373,-2.33922096985,-12.2936507436)) ;
#218=CARTESIAN_POINT('Control Point',(17.2472452318,-1.4589404894,-12.425895718)) ;
#219=CARTESIAN_POINT('Control Point',(17.4491068181,-0.992328138454,-12.4753820636)) ;
#220=CARTESIAN_POINT('Control Point',(17.55,-0.496164653999,-12.5)) ;
#221=CARTESIAN_POINT('Control Point',(17.55,3.5527136788E-015,-12.5)) ;
#222=CARTESIAN_POINT('Vertex',(11.45,3.7351727374E-016,-12.5)) ;
#224=CARTESIAN_POINT('Vertex',(17.55,0.,-12.5)) ;
#228=CARTESIAN_POINT('Control Point',(17.55,3.77475828373E-015,-12.5)) ;
#229=CARTESIAN_POINT('Control Point',(17.55,0.515175302143,-12.5)) ;
#230=CARTESIAN_POINT('Control Point',(17.4412272164,1.0303493434,-12.4734594408)) ;
#231=CARTESIAN_POINT('Control Point',(17.2237040517,1.51226000864,-12.4200992238)) ;
#232=CARTESIAN_POINT('Control Point',(16.7059937753,2.21564001278,-12.3104311291)) ;
#233=CARTESIAN_POINT('Control Point',(15.9877929594,2.69611047774,-12.207808551)) ;
#234=CARTESIAN_POINT('Control Point',(15.6726691671,2.84763215344,-12.1721057936)) ;
#235=CARTESIAN_POINT('Control Point',(14.7957155106,3.12384531035,-12.1045187192)) ;
#236=CARTESIAN_POINT('Control Point',(13.8599608151,3.0646395888,-12.1177019325)) ;
#237=CARTESIAN_POINT('Control Point',(13.3002196411,2.89011067506,-12.1652313273)) ;
#238=CARTESIAN_POINT('Control Point',(12.3694623628,2.3392209699,-12.2936507436)) ;
#239=CARTESIAN_POINT('Control Point',(11.7527547682,1.45894048941,-12.425895718)) ;
#240=CARTESIAN_POINT('Control Point',(11.5508931819,0.992328138503,-12.4753820636)) ;
#241=CARTESIAN_POINT('Control Point',(11.45,0.496164654024,-12.5)) ;
#242=CARTESIAN_POINT('Control Point',(11.45,-7.55803274627E-015,-12.5)) ;
#249=CARTESIAN_POINT('Axis2P3D Location',(700.,0.,0.)) ;
#254=CARTESIAN_POINT('Line Origine',(700.,-5.51339369395,-10.0921994617)) ;
#259=CARTESIAN_POINT('Line Origine',(700.,5.51339369395,10.0921994617)) ;
#271=CARTESIAN_POINT('Control Point',(11.45,-2.53130849615E-014,11.5)) ;
#272=CARTESIAN_POINT('Control Point',(11.45,-0.283656009855,11.5)) ;
#273=CARTESIAN_POINT('Control Point',(11.4829757098,-0.567311637458,11.4912542683)) ;
#274=CARTESIAN_POINT('Control Point',(11.5489319204,-0.845412805153,11.4737491164)) ;
#275=CARTESIAN_POINT('Control Point',(11.8445489235,-1.65741645251,11.3981410978)) ;
#276=CARTESIAN_POINT('Control Point',(12.4068567202,-2.33015247331,11.274004704)) ;
#277=CARTESIAN_POINT('Control Point',(12.8831569029,-2.68391835927,11.1863852779)) ;
#278=CARTESIAN_POINT('Control Point',(13.9603534327,-3.13714515247,11.0656965835)) ;
#279=CARTESIAN_POINT('Control Point',(15.1312769499,-3.06583522764,11.0829243347)) ;
#280=CARTESIAN_POINT('Control Point',(15.6889630398,-2.89364733774,11.1342206601)) ;
#281=CARTESIAN_POINT('Control Point',(16.6219666811,-2.34693623552,11.2736434189)) ;
#282=CARTESIAN_POINT('Control Point',(17.2426098668,-1.46923414439,11.4182303869)) ;
#283=CARTESIAN_POINT('Control Point',(17.44755633,-0.999923919176,11.4728301571)) ;
#284=CARTESIAN_POINT('Control Point',(17.55,-0.499962553347,11.5)) ;
#285=CARTESIAN_POINT('Control Point',(17.55,-4.88498130835E-015,11.5)) ;
#286=CARTESIAN_POINT('Vertex',(11.45,3.7351727374E-016,11.5)) ;
#288=CARTESIAN_POINT('Vertex',(17.55,0.,11.5)) ;
#292=CARTESIAN_POINT('Control Point',(17.55,-4.88498130835E-015,11.5)) ;
#293=CARTESIAN_POINT('Control Point',(17.55,0.28365600974,11.5)) ;
#294=CARTESIAN_POINT('Control Point',(17.5170242902,0.567311637228,11.4912542683)) ;
#295=CARTESIAN_POINT('Control Point',(17.4510680795,0.84541280541,11.4737491163)) ;
#296=CARTESIAN_POINT('Control Point',(17.1554510765,1.65741645229,11.3981410978)) ;
#297=CARTESIAN_POINT('Control Point',(16.5931432802,2.33015247277,11.2740047041)) ;
#298=CARTESIAN_POINT('Control Point',(16.1168430964,2.68391835957,11.1863852778)) ;
#299=CARTESIAN_POINT('Control Point',(15.039646567,3.13714515242,11.0656965835)) ;
#300=CARTESIAN_POINT('Control Point',(13.8687230502,3.06583522764,11.0829243347)) ;
#301=CARTESIAN_POINT('Control Point',(13.31103696,2.89364733762,11.1342206602)) ;
#302=CARTESIAN_POINT('Control Point',(12.3780333187,2.34693623532,11.273643419)) ;
#303=CARTESIAN_POINT('Control Point',(11.757390133,1.46923414409,11.418230387)) ;
#304=CARTESIAN_POINT('Control Point',(11.55244367,0.999923919496,11.4728301571)) ;
#305=CARTESIAN_POINT('Control Point',(11.45,0.499962553507,11.5)) ;
#306=CARTESIAN_POINT('Control Point',(11.45,-5.10710906119E-015,11.5)) ;
#320=CARTESIAN_POINT('Control Point',(17.55,1.37667655054E-014,-11.5)) ;
#321=CARTESIAN_POINT('Control Point',(17.55,0.283656009744,-11.5)) ;
#322=CARTESIAN_POINT('Control Point',(17.5170242902,0.567311637235,-11.4912542683)) ;
#323=CARTESIAN_POINT('Control Point',(17.4510680795,0.845412805378,-11.4737491163)) ;
#324=CARTESIAN_POINT('Control Point',(17.1554510765,1.65741645241,-11.3981410978)) ;
#325=CARTESIAN_POINT('Control Point',(16.5931432801,2.330152473,-11.2740047041)) ;
#326=CARTESIAN_POINT('Control Point',(16.1168430967,2.68391835943,-11.1863852778)) ;
#327=CARTESIAN_POINT('Control Point',(15.0396465671,3.13714515246,-11.0656965835)) ;
#328=CARTESIAN_POINT('Control Point',(13.8687230501,3.06583522763,-11.0829243347)) ;
#329=CARTESIAN_POINT('Control Point',(13.3110369602,2.89364733772,-11.1342206601)) ;
#330=CARTESIAN_POINT('Control Point',(12.3780333187,2.3469362354,-11.273643419)) ;
#331=CARTESIAN_POINT('Control Point',(11.7573901329,1.46923414406,-11.418230387)) ;
#332=CARTESIAN_POINT('Control Point',(11.55244367,0.99992391956,-11.4728301571)) ;
#333=CARTESIAN_POINT('Control Point',(11.45,0.499962553539,-11.5)) ;
#334=CARTESIAN_POINT('Control Point',(11.45,3.77475828373E-015,-11.5)) ;
#335=CARTESIAN_POINT('Vertex',(17.55,0.,-11.5)) ;
#337=CARTESIAN_POINT('Vertex',(11.45,3.7351727374E-016,-11.5)) ;
#341=CARTESIAN_POINT('Control Point',(11.45,1.37667655054E-014,-11.5)) ;
#342=CARTESIAN_POINT('Control Point',(11.45,-0.283656009744,-11.5)) ;
#343=CARTESIAN_POINT('Control Point',(11.4829757098,-0.567311637237,-11.4912542683)) ;
#344=CARTESIAN_POINT('Control Point',(11.5489319205,-0.845412805388,-11.4737491163)) ;
#345=CARTESIAN_POINT('Control Point',(11.8445489235,-1.65741645241,-11.3981410978)) ;
#346=CARTESIAN_POINT('Control Point',(12.4068567199,-2.330152473,-11.2740047041)) ;
#347=CARTESIAN_POINT('Control Point',(12.8831569034,-2.68391835944,-11.1863852778)) ;
#348=CARTESIAN_POINT('Control Point',(13.9603534329,-3.13714515247,-11.0656965835)) ;
#349=CARTESIAN_POINT('Control Point',(15.13127695,-3.06583522763,-11.0829243347)) ;
#350=CARTESIAN_POINT('Control Point',(15.6889630398,-2.89364733774,-11.1342206601)) ;
#351=CARTESIAN_POINT('Control Point',(16.6219666811,-2.34693623551,-11.2736434189)) ;
#352=CARTESIAN_POINT('Control Point',(17.2426098668,-1.4692341444,-11.4182303869)) ;
#353=CARTESIAN_POINT('Control Point',(17.44755633,-0.999923919145,-11.4728301571)) ;
#354=CARTESIAN_POINT('Control Point',(17.55,-0.499962553331,-11.5)) ;
#355=CARTESIAN_POINT('Control Point',(17.55,-1.66533453694E-014,-11.5)) ;
#362=CARTESIAN_POINT('Axis2P3D Location',(14.5,0.,0.)) ;
#367=CARTESIAN_POINT('Line Origine',(11.45,3.7351727374E-016,0.)) ;
#372=CARTESIAN_POINT('Line Origine',(17.55,-7.4703454748E-016,0.)) ;
#391=CARTESIAN_POINT('Line Origine',(17.55,-7.4703454748E-016,0.)) ;
#396=CARTESIAN_POINT('Line Origine',(11.45,3.7351727374E-016,0.)) ;
#53=DIRECTION('Axis2P3D Direction',(-1.,0.,0.)) ;
#54=DIRECTION('Axis2P3D XDirection',(0.,1.,0.)) ;
#58=DIRECTION('Axis2P3D Direction',(-1.,0.,0.)) ;
#67=DIRECTION('Axis2P3D Direction',(-1.,0.,0.)) ;
#76=DIRECTION('Axis2P3D Direction',(-1.,0.,0.)) ;
#85=DIRECTION('Axis2P3D Direction',(-1.,0.,0.)) ;
#95=DIRECTION('Axis2P3D Direction',(-1.,0.,0.)) ;
#96=DIRECTION('Axis2P3D XDirection',(0.,1.,0.)) ;
#100=DIRECTION('Axis2P3D Direction',(-1.,0.,0.)) ;
#109=DIRECTION('Axis2P3D Direction',(-1.,0.,0.)) ;
#118=DIRECTION('Axis2P3D Direction',(-1.,0.,0.)) ;
#127=DIRECTION('Axis2P3D Direction',(-1.,0.,0.)) ;
#137=DIRECTION('Axis2P3D Direction',(-1.,0.,0.)) ;
#138=DIRECTION('Axis2P3D XDirection',(0.,0.479425538604,0.87758256189)) ;
#142=DIRECTION('Vector Direction',(-1.,0.,0.)) ;
#147=DIRECTION('Vector Direction',(-1.,0.,0.)) ;
#250=DIRECTION('Axis2P3D Direction',(-1.,0.,0.)) ;
#251=DIRECTION('Axis2P3D XDirection',(0.,0.479425538604,0.87758256189)) ;
#255=DIRECTION('Vector Direction',(-1.,0.,0.)) ;
#260=DIRECTION('Vector Direction',(-1.,0.,0.)) ;
#363=DIRECTION('Axis2P3D Direction',(0.,0.,1.)) ;
#364=DIRECTION('Axis2P3D XDirection',(1.,0.,0.)) ;
#368=DIRECTION('Vector Direction',(0.,0.,1.)) ;
#373=DIRECTION('Vector Direction',(0.,0.,1.)) ;
#392=DIRECTION('Vector Direction',(0.,0.,1.)) ;
#397=DIRECTION('Vector Direction',(0.,0.,1.)) ;
#48=AXIS2_PLACEMENT_3D(' ',#47,$,$) ;
#55=AXIS2_PLACEMENT_3D('Plane Axis2P3D',#52,#53,#54) ;
#59=AXIS2_PLACEMENT_3D('Circle Axis2P3D',#57,#58,$) ;
#68=AXIS2_PLACEMENT_3D('Circle Axis2P3D',#66,#67,$) ;
#77=AXIS2_PLACEMENT_3D('Circle Axis2P3D',#75,#76,$) ;
#86=AXIS2_PLACEMENT_3D('Circle Axis2P3D',#84,#85,$) ;
#97=AXIS2_PLACEMENT_3D('Plane Axis2P3D',#94,#95,#96) ;
#101=AXIS2_PLACEMENT_3D('Circle Axis2P3D',#99,#100,$) ;
#110=AXIS2_PLACEMENT_3D('Circle Axis2P3D',#108,#109,$) ;
#119=AXIS2_PLACEMENT_3D('Circle Axis2P3D',#117,#118,$) ;
#128=AXIS2_PLACEMENT_3D('Circle Axis2P3D',#126,#127,$) ;
#139=AXIS2_PLACEMENT_3D('Cylinder Axis2P3D',#136,#137,#138) ;
#252=AXIS2_PLACEMENT_3D('Cylinder Axis2P3D',#249,#250,#251) ;
#365=AXIS2_PLACEMENT_3D('Cylinder Axis2P3D',#362,#363,#364) ;
#40=PRODUCT_DEFINITION_SHAPE(' ',' ',#14) ;
#31=APPROVAL_PERSON_ORGANIZATION(#25,#21,#19) ;
#25=PERSON_AND_ORGANIZATION(#22,#23) ;
#22=PERSON(' ',' ',' ',$,$,$) ;
#23=ORGANIZATION(' ',' ',' ') ;
#21=APPROVAL(#20,' ') ;
#20=APPROVAL_STATUS('not_yet_approved') ;
#19=APPROVAL_ROLE('APPROVER') ;
#13=DATE_AND_TIME(#11,#12) ;
#12=LOCAL_TIME(23,9,23.,#10) ;
#10=COORDINATED_UNIVERSAL_TIME_OFFSET(0,0,.AHEAD.) ;
#72=ORIENTED_EDGE('',*,*,#65,.T.) ;
#73=ORIENTED_EDGE('',*,*,#70,.T.) ;
#90=ORIENTED_EDGE('',*,*,#83,.F.) ;
#91=ORIENTED_EDGE('',*,*,#88,.F.) ;
#114=ORIENTED_EDGE('',*,*,#107,.F.) ;
#115=ORIENTED_EDGE('',*,*,#112,.F.) ;
#132=ORIENTED_EDGE('',*,*,#125,.T.) ;
#133=ORIENTED_EDGE('',*,*,#130,.T.) ;
#152=ORIENTED_EDGE('',*,*,#65,.F.) ;
#153=ORIENTED_EDGE('',*,*,#145,.T.) ;
#154=ORIENTED_EDGE('',*,*,#112,.T.) ;
#155=ORIENTED_EDGE('',*,*,#150,.F.) ;
#196=ORIENTED_EDGE('',*,*,#177,.F.) ;
#197=ORIENTED_EDGE('',*,*,#194,.F.) ;
#201=ORIENTED_EDGE('',*,*,#70,.F.) ;
#202=ORIENTED_EDGE('',*,*,#150,.T.) ;
#203=ORIENTED_EDGE('',*,*,#107,.T.) ;
#204=ORIENTED_EDGE('',*,*,#145,.F.) ;
#245=ORIENTED_EDGE('',*,*,#226,.T.) ;
#246=ORIENTED_EDGE('',*,*,#243,.T.) ;
#265=ORIENTED_EDGE('',*,*,#125,.F.) ;
#266=ORIENTED_EDGE('',*,*,#258,.T.) ;
#267=ORIENTED_EDGE('',*,*,#88,.T.) ;
#268=ORIENTED_EDGE('',*,*,#263,.F.) ;
#309=ORIENTED_EDGE('',*,*,#290,.T.) ;
#310=ORIENTED_EDGE('',*,*,#307,.T.) ;
#314=ORIENTED_EDGE('',*,*,#130,.F.) ;
#315=ORIENTED_EDGE('',*,*,#263,.T.) ;
#316=ORIENTED_EDGE('',*,*,#83,.T.) ;
#317=ORIENTED_EDGE('',*,*,#258,.F.) ;
#358=ORIENTED_EDGE('',*,*,#339,.F.) ;
#359=ORIENTED_EDGE('',*,*,#356,.F.) ;
#378=ORIENTED_EDGE('',*,*,#371,.F.) ;
#379=ORIENTED_EDGE('',*,*,#194,.T.) ;
#380=ORIENTED_EDGE('',*,*,#376,.T.) ;
#381=ORIENTED_EDGE('',*,*,#290,.F.) ;
#385=ORIENTED_EDGE('',*,*,#376,.F.) ;
#386=ORIENTED_EDGE('',*,*,#177,.T.) ;
#387=ORIENTED_EDGE('',*,*,#371,.T.) ;
#388=ORIENTED_EDGE('',*,*,#307,.F.) ;
#402=ORIENTED_EDGE('',*,*,#395,.T.) ;
#403=ORIENTED_EDGE('',*,*,#226,.F.) ;
#404=ORIENTED_EDGE('',*,*,#400,.F.) ;
#405=ORIENTED_EDGE('',*,*,#356,.T.) ;
#409=ORIENTED_EDGE('',*,*,#400,.T.) ;
#410=ORIENTED_EDGE('',*,*,#243,.F.) ;
#411=ORIENTED_EDGE('',*,*,#395,.F.) ;
#412=ORIENTED_EDGE('',*,*,#339,.T.) ;
#92=FACE_BOUND('',#89,.T.) ;
#134=FACE_BOUND('',#131,.T.) ;
#198=FACE_BOUND('',#195,.T.) ;
#247=FACE_BOUND('',#244,.T.) ;
#311=FACE_BOUND('',#308,.T.) ;
#360=FACE_BOUND('',#357,.T.) ;
#51=CLOSED_SHELL('Closed Shell',(#93,#135,#199,#248,#312,#361,#383,#390,#407,#414)) ;
#143=VECTOR('Line Direction',#142,1.) ;
#148=VECTOR('Line Direction',#147,1.) ;
#256=VECTOR('Line Direction',#255,1.) ;
#261=VECTOR('Line Direction',#260,1.) ;
#369=VECTOR('Line Direction',#368,1.) ;
#374=VECTOR('Line Direction',#373,1.) ;
#393=VECTOR('Line Direction',#392,1.) ;
#398=VECTOR('Line Direction',#397,1.) ;
#416=ADVANCED_BREP_SHAPE_REPRESENTATION('NONE',(#415),#46) ;
#49=SHAPE_REPRESENTATION(' ',(#48),#46) ;
#93=ADVANCED_FACE('PartBody',(#74,#92),#56,.T.) ;
#135=ADVANCED_FACE('PartBody',(#116,#134),#98,.F.) ;
#199=ADVANCED_FACE('PartBody',(#156,#198),#140,.T.) ;
#248=ADVANCED_FACE('PartBody',(#205,#247),#140,.T.) ;
#312=ADVANCED_FACE('PartBody',(#269,#311),#253,.F.) ;
#361=ADVANCED_FACE('PartBody',(#318,#360),#253,.F.) ;
#383=ADVANCED_FACE('PartBody',(#382),#366,.F.) ;
#390=ADVANCED_FACE('PartBody',(#389),#366,.F.) ;
#407=ADVANCED_FACE('PartBody',(#406),#366,.F.) ;
#414=ADVANCED_FACE('PartBody',(#413),#366,.F.) ;
#4=APPLICATION_PROTOCOL_DEFINITION('international standard','config_control_design',1994,#1) ;
#32=APPROVAL_DATE_TIME(#13,#21) ;
#157=B_SPLINE_CURVE_WITH_KNOTS('',5,(#158,#159,#160,#161,#162,#163,#164,#165,#166,#167,#168,#169,#170,#171,#172),.UNSPECIFIED.,.F.,.U.,(6,3,3,3,6),(0.,3.64283949512,6.09364596648,10.0935213454,13.601935261),.UNSPECIFIED.) ;
#178=B_SPLINE_CURVE_WITH_KNOTS('',5,(#179,#180,#181,#182,#183,#184,#185,#186,#187,#188,#189,#190,#191,#192,#193),.UNSPECIFIED.,.F.,.U.,(6,3,3,3,6),(0.,3.64283949669,6.09364596836,10.0935213462,13.6019352631),.UNSPECIFIED.) ;
#206=B_SPLINE_CURVE_WITH_KNOTS('',5,(#207,#208,#209,#210,#211,#212,#213,#214,#215,#216,#217,#218,#219,#220,#221),.UNSPECIFIED.,.F.,.U.,(6,3,3,3,6),(0.,3.6428394968,6.09364596658,10.0935213448,13.6019352591),.UNSPECIFIED.) ;
#227=B_SPLINE_CURVE_WITH_KNOTS('',5,(#228,#229,#230,#231,#232,#233,#234,#235,#236,#237,#238,#239,#240,#241,#242),.UNSPECIFIED.,.F.,.U.,(6,3,3,3,6),(0.,3.64283949645,6.09364596842,10.0935213468,13.6019352612),.UNSPECIFIED.) ;
#270=B_SPLINE_CURVE_WITH_KNOTS('',5,(#271,#272,#273,#274,#275,#276,#277,#278,#279,#280,#281,#282,#283,#284,#285),.UNSPECIFIED.,.F.,.U.,(6,3,3,3,6),(0.,2.00575088093,6.09256994313,10.0761895978,13.6114587159),.UNSPECIFIED.) ;
#291=B_SPLINE_CURVE_WITH_KNOTS('',5,(#292,#293,#294,#295,#296,#297,#298,#299,#300,#301,#302,#303,#304,#305,#306),.UNSPECIFIED.,.F.,.U.,(6,3,3,3,6),(0.,2.00575088011,6.09256993975,10.0761895937,13.611458713),.UNSPECIFIED.) ;
#319=B_SPLINE_CURVE_WITH_KNOTS('',5,(#320,#321,#322,#323,#324,#325,#326,#327,#328,#329,#330,#331,#332,#333,#334),.UNSPECIFIED.,.F.,.U.,(6,3,3,3,6),(0.,2.00575088014,6.0925699409,10.0761895955,13.611458715),.UNSPECIFIED.) ;
#340=B_SPLINE_CURVE_WITH_KNOTS('',5,(#341,#342,#343,#344,#345,#346,#347,#348,#349,#350,#351,#352,#353,#354,#355),.UNSPECIFIED.,.F.,.U.,(6,3,3,3,6),(0.,2.00575088014,6.09256994084,10.0761895956,13.6114587136),.UNSPECIFIED.) ;
#415=MANIFOLD_SOLID_BREP('PartBody',#51) ;
#11=CALENDAR_DATE(2020,30,1) ;
#30=CC_DESIGN_APPROVAL(#21,(#16,#6,#14)) ;
#18=CC_DESIGN_DATE_AND_TIME_ASSIGNMENT(#13,#17,(#16)) ;
#29=CC_DESIGN_DATE_AND_TIME_ASSIGNMENT(#13,#28,(#14)) ;
#17=DATE_TIME_ROLE('classification_date') ;
#28=DATE_TIME_ROLE('creation_date') ;
#27=CC_DESIGN_PERSON_AND_ORGANIZATION_ASSIGNMENT(#25,#26,(#16)) ;
#33=CC_DESIGN_PERSON_AND_ORGANIZATION_ASSIGNMENT(#25,#34,(#6)) ;
#35=CC_DESIGN_PERSON_AND_ORGANIZATION_ASSIGNMENT(#25,#36,(#6,#14)) ;
#37=CC_DESIGN_PERSON_AND_ORGANIZATION_ASSIGNMENT(#25,#38,(#5)) ;
#26=PERSON_AND_ORGANIZATION_ROLE('classification_officer') ;
#34=PERSON_AND_ORGANIZATION_ROLE('design_supplier') ;
#36=PERSON_AND_ORGANIZATION_ROLE('creator') ;
#38=PERSON_AND_ORGANIZATION_ROLE('design_owner') ;
#39=CC_DESIGN_SECURITY_CLASSIFICATION(#16,(#6)) ;
#60=CIRCLE('generated circle',#59,12.5) ;
#69=CIRCLE('generated circle',#68,12.5) ;
#78=CIRCLE('generated circle',#77,11.5) ;
#87=CIRCLE('generated circle',#86,11.5) ;
#102=CIRCLE('generated circle',#101,12.5) ;
#111=CIRCLE('generated circle',#110,12.5) ;
#120=CIRCLE('generated circle',#119,11.5) ;
#129=CIRCLE('generated circle',#128,11.5) ;
#417=SHAPE_REPRESENTATION_RELATIONSHIP(' ',' ',#49,#416) ;
#140=CYLINDRICAL_SURFACE('generated cylinder',#139,12.5) ;
#253=CYLINDRICAL_SURFACE('generated cylinder',#252,11.5) ;
#366=CYLINDRICAL_SURFACE('generated cylinder',#365,3.05) ;
#3=DESIGN_CONTEXT(' ',#1,'design') ;
#65=EDGE_CURVE('',#62,#64,#60,.T.) ;
#70=EDGE_CURVE('',#64,#62,#69,.T.) ;
#83=EDGE_CURVE('',#80,#82,#78,.T.) ;
#88=EDGE_CURVE('',#82,#80,#87,.T.) ;
#107=EDGE_CURVE('',#104,#106,#102,.T.) ;
#112=EDGE_CURVE('',#106,#104,#111,.T.) ;
#125=EDGE_CURVE('',#122,#124,#120,.T.) ;
#130=EDGE_CURVE('',#124,#122,#129,.T.) ;
#145=EDGE_CURVE('',#62,#106,#144,.F.) ;
#150=EDGE_CURVE('',#64,#104,#149,.F.) ;
#177=EDGE_CURVE('',#174,#176,#157,.T.) ;
#194=EDGE_CURVE('',#176,#174,#178,.T.) ;
#226=EDGE_CURVE('',#223,#225,#206,.T.) ;
#243=EDGE_CURVE('',#225,#223,#227,.T.) ;
#258=EDGE_CURVE('',#122,#82,#257,.T.) ;
#263=EDGE_CURVE('',#124,#80,#262,.T.) ;
#290=EDGE_CURVE('',#287,#289,#270,.T.) ;
#307=EDGE_CURVE('',#289,#287,#291,.T.) ;
#339=EDGE_CURVE('',#336,#338,#319,.T.) ;
#356=EDGE_CURVE('',#338,#336,#340,.T.) ;
#371=EDGE_CURVE('',#176,#287,#370,.F.) ;
#376=EDGE_CURVE('',#174,#289,#375,.F.) ;
#395=EDGE_CURVE('',#336,#225,#394,.F.) ;
#400=EDGE_CURVE('',#338,#223,#399,.F.) ;
#71=EDGE_LOOP('',(#72,#73)) ;
#89=EDGE_LOOP('',(#90,#91)) ;
#113=EDGE_LOOP('',(#114,#115)) ;
#131=EDGE_LOOP('',(#132,#133)) ;
#151=EDGE_LOOP('',(#152,#153,#154,#155)) ;
#195=EDGE_LOOP('',(#196,#197)) ;
#200=EDGE_LOOP('',(#201,#202,#203,#204)) ;
#244=EDGE_LOOP('',(#245,#246)) ;
#264=EDGE_LOOP('',(#265,#266,#267,#268)) ;
#308=EDGE_LOOP('',(#309,#310)) ;
#313=EDGE_LOOP('',(#314,#315,#316,#317)) ;
#357=EDGE_LOOP('',(#358,#359)) ;
#377=EDGE_LOOP('',(#378,#379,#380,#381)) ;
#384=EDGE_LOOP('',(#385,#386,#387,#388)) ;
#401=EDGE_LOOP('',(#402,#403,#404,#405)) ;
#408=EDGE_LOOP('',(#409,#410,#411,#412)) ;
#74=FACE_OUTER_BOUND('',#71,.T.) ;
#116=FACE_OUTER_BOUND('',#113,.T.) ;
#156=FACE_OUTER_BOUND('',#151,.T.) ;
#205=FACE_OUTER_BOUND('',#200,.T.) ;
#269=FACE_OUTER_BOUND('',#264,.T.) ;
#318=FACE_OUTER_BOUND('',#313,.T.) ;
#382=FACE_OUTER_BOUND('',#377,.T.) ;
#389=FACE_OUTER_BOUND('',#384,.T.) ;
#406=FACE_OUTER_BOUND('',#401,.T.) ;
#413=FACE_OUTER_BOUND('',#408,.T.) ;
#45=UNCERTAINTY_MEASURE_WITH_UNIT(LENGTH_MEASURE(0.005),#41,'distance_accuracy_value','CONFUSED CURVE UNCERTAINTY') ;
#144=LINE('Line',#141,#143) ;
#149=LINE('Line',#146,#148) ;
#257=LINE('Line',#254,#256) ;
#262=LINE('Line',#259,#261) ;
#370=LINE('Line',#367,#369) ;
#375=LINE('Line',#372,#374) ;
#394=LINE('Line',#391,#393) ;
#399=LINE('Line',#396,#398) ;
#2=MECHANICAL_CONTEXT(' ',#1,'mechanical') ;
#24=PERSONAL_ADDRESS(' ',' ',' ',' ',' ',' ',' ',' ',' ',' ',' ',' ',(#22),' ') ;
#56=PLANE('',#55) ;
#98=PLANE('',#97) ;
#43=PLANE_ANGLE_MEASURE_WITH_UNIT(PLANE_ANGLE_MEASURE(0.0174532925199),#42) ;
#7=PRODUCT_CATEGORY('part',$) ;
#9=PRODUCT_CATEGORY_RELATIONSHIP(' ',' ',#7,#8) ;
#6=PRODUCT_DEFINITION_FORMATION_WITH_SPECIFIED_SOURCE('',' ',#5,.NOT_KNOWN.) ;
#8=PRODUCT_RELATED_PRODUCT_CATEGORY('detail',$,(#5)) ;
#50=SHAPE_DEFINITION_REPRESENTATION(#40,#49) ;
#62=VERTEX_POINT('',#61) ;
#64=VERTEX_POINT('',#63) ;
#80=VERTEX_POINT('',#79) ;
#82=VERTEX_POINT('',#81) ;
#104=VERTEX_POINT('',#103) ;
#106=VERTEX_POINT('',#105) ;
#122=VERTEX_POINT('',#121) ;
#124=VERTEX_POINT('',#123) ;
#174=VERTEX_POINT('',#173) ;
#176=VERTEX_POINT('',#175) ;
#223=VERTEX_POINT('',#222) ;
#225=VERTEX_POINT('',#224) ;
#287=VERTEX_POINT('',#286) ;
#289=VERTEX_POINT('',#288) ;
#336=VERTEX_POINT('',#335) ;
#338=VERTEX_POINT('',#337) ;
#41=(LENGTH_UNIT()NAMED_UNIT(*)SI_UNIT(.MILLI.,.METRE.)) ;
#42=(NAMED_UNIT(*)PLANE_ANGLE_UNIT()SI_UNIT($,.RADIAN.)) ;
#44=(NAMED_UNIT(*)SI_UNIT($,.STERADIAN.)SOLID_ANGLE_UNIT()) ;
#46=(GEOMETRIC_REPRESENTATION_CONTEXT(3)GLOBAL_UNCERTAINTY_ASSIGNED_CONTEXT((#45))GLOBAL_UNIT_ASSIGNED_CONTEXT((#41,#42,#44))REPRESENTATION_CONTEXT(' ',' ')) ;
ENDSEC;
END-ISO-10303-21;
