ISO-10303-21;
HEADER;
FILE_DESCRIPTION(('CATIA V5 STEP Exchange'),'2;1');

FILE_NAME('C:\\ENTREPRISE\\LOCAL\\Eoliene\\CAO\\EOLX1.2 Rotor 4 pales Vilebrequin\\EOLX1.2-D-130-008_A.stp','2020-01-30T22:16:45+00:00',('none'),('none'),'CATIA Version 5 Release 21 GA (IN-10)','CATIA V5 STEP AP203','none');

FILE_SCHEMA(('CONFIG_CONTROL_DESIGN'));

ENDSEC;
/* file written by CATIA V5R21 */
DATA;
#5=PRODUCT('EOLX1.2-D-130-008_A','','',(#2)) ;
#1=APPLICATION_CONTEXT('configuration controlled 3D design of mechanical parts and assemblies') ;
#14=PRODUCT_DEFINITION('',' ',#6,#3) ;
#16=SECURITY_CLASSIFICATION(' ',' ',#15) ;
#15=SECURITY_CLASSIFICATION_LEVEL('unclassified') ;
#47=CARTESIAN_POINT(' ',(0.,0.,0.)) ;
#52=CARTESIAN_POINT('Axis2P3D Location',(0.,27.5,0.)) ;
#57=CARTESIAN_POINT('Axis2P3D Location',(0.,27.5,0.)) ;
#61=CARTESIAN_POINT('Vertex',(2.42109896995,27.5,4.43179193755)) ;
#63=CARTESIAN_POINT('Vertex',(-2.42109896995,27.5,-4.43179193755)) ;
#66=CARTESIAN_POINT('Line Origine',(2.5409553546,27.75,4.65118757802)) ;
#70=CARTESIAN_POINT('Vertex',(2.66081173925,28.,4.87058321849)) ;
#73=CARTESIAN_POINT('Axis2P3D Location',(0.,28.,0.)) ;
#77=CARTESIAN_POINT('Vertex',(-2.66081173925,28.,-4.87058321849)) ;
#80=CARTESIAN_POINT('Line Origine',(-2.5409553546,27.75,-4.65118757802)) ;
#92=CARTESIAN_POINT('Axis2P3D Location',(0.,27.5,0.)) ;
#97=CARTESIAN_POINT('Axis2P3D Location',(0.,28.,0.)) ;
#109=CARTESIAN_POINT('Axis2P3D Location',(0.,0.,7.65)) ;
#114=CARTESIAN_POINT('Axis2P3D Location',(0.,0.,0.)) ;
#118=CARTESIAN_POINT('Vertex',(3.66760537032,0.,6.71350659846)) ;
#120=CARTESIAN_POINT('Vertex',(-3.66760537032,0.,-6.71350659846)) ;
#123=CARTESIAN_POINT('Axis2P3D Location',(0.,0.,0.)) ;
#132=CARTESIAN_POINT('Axis2P3D Location',(0.,0.,0.)) ;
#136=CARTESIAN_POINT('Vertex',(-2.42109896995,0.,-4.43179193755)) ;
#138=CARTESIAN_POINT('Vertex',(2.42109896995,0.,4.43179193755)) ;
#141=CARTESIAN_POINT('Axis2P3D Location',(0.,0.,0.)) ;
#151=CARTESIAN_POINT('Axis2P3D Location',(0.,28.,5.55)) ;
#156=CARTESIAN_POINT('Axis2P3D Location',(0.,28.,0.)) ;
#160=CARTESIAN_POINT('Vertex',(-3.66760537032,28.,-6.71350659846)) ;
#162=CARTESIAN_POINT('Vertex',(3.66760537032,28.,6.71350659846)) ;
#165=CARTESIAN_POINT('Axis2P3D Location',(0.,28.,0.)) ;
#179=CARTESIAN_POINT('Axis2P3D Location',(0.,14.,0.)) ;
#184=CARTESIAN_POINT('Line Origine',(-3.66760537032,14.,-6.71350659846)) ;
#189=CARTESIAN_POINT('Line Origine',(3.66760537032,14.,6.71350659846)) ;
#201=CARTESIAN_POINT('Control Point',(-2.,14.,7.38393526516)) ;
#202=CARTESIAN_POINT('Control Point',(-2.,13.6148147383,7.38393526516)) ;
#203=CARTESIAN_POINT('Control Point',(-1.9072701964,13.2296312362,7.40905190019)) ;
#204=CARTESIAN_POINT('Control Point',(-1.7221126968,12.8774014895,7.45953645141)) ;
#205=CARTESIAN_POINT('Control Point',(-1.28897762212,12.3865886991,7.55301560568)) ;
#206=CARTESIAN_POINT('Control Point',(-0.707015766453,12.1024567398,7.62300375453)) ;
#207=CARTESIAN_POINT('Control Point',(-0.456133777068,12.0267637898,7.64301538818)) ;
#208=CARTESIAN_POINT('Control Point',(0.0618264993064,11.9594167867,7.66059587846)) ;
#209=CARTESIAN_POINT('Control Point',(0.574363015922,12.0580600056,7.63483688363)) ;
#210=CARTESIAN_POINT('Control Point',(0.819330880567,12.1483866902,7.61140812551)) ;
#211=CARTESIAN_POINT('Control Point',(1.36128663897,12.4541512499,7.538373375)) ;
#212=CARTESIAN_POINT('Control Point',(1.75524594391,12.9429808579,7.45048637134)) ;
#213=CARTESIAN_POINT('Control Point',(1.9183826719,13.2772630759,7.4060419942)) ;
#214=CARTESIAN_POINT('Control Point',(2.,13.6386307636,7.38393526516)) ;
#215=CARTESIAN_POINT('Control Point',(2.,14.,7.38393526516)) ;
#216=CARTESIAN_POINT('Vertex',(-2.,14.,7.38393526516)) ;
#218=CARTESIAN_POINT('Vertex',(2.,14.,7.38393526516)) ;
#222=CARTESIAN_POINT('Control Point',(-2.,14.,7.38393526516)) ;
#223=CARTESIAN_POINT('Control Point',(-2.,14.3851852616,7.38393526516)) ;
#224=CARTESIAN_POINT('Control Point',(-1.90727019641,14.7703687638,7.40905190019)) ;
#225=CARTESIAN_POINT('Control Point',(-1.72211269676,15.1225985106,7.45953645142)) ;
#226=CARTESIAN_POINT('Control Point',(-1.28897762209,15.6134113009,7.55301560568)) ;
#227=CARTESIAN_POINT('Control Point',(-0.707015766441,15.8975432602,7.62300375453)) ;
#228=CARTESIAN_POINT('Control Point',(-0.456133777081,15.9732362102,7.64301538818)) ;
#229=CARTESIAN_POINT('Control Point',(0.0618264992842,16.0405832133,7.66059587846)) ;
#230=CARTESIAN_POINT('Control Point',(0.574363015892,15.9419399944,7.63483688364)) ;
#231=CARTESIAN_POINT('Control Point',(0.819330880594,15.8516133098,7.61140812551)) ;
#232=CARTESIAN_POINT('Control Point',(1.36128663903,15.54584875,7.53837337499)) ;
#233=CARTESIAN_POINT('Control Point',(1.75524594399,15.057019142,7.45048637132)) ;
#234=CARTESIAN_POINT('Control Point',(1.91838267187,14.7227369242,7.40604199421)) ;
#235=CARTESIAN_POINT('Control Point',(2.,14.3613692364,7.38393526516)) ;
#236=CARTESIAN_POINT('Control Point',(2.,14.,7.38393526516)) ;
#250=CARTESIAN_POINT('Control Point',(-2.,14.,-7.38393526516)) ;
#251=CARTESIAN_POINT('Control Point',(-2.,13.6148147384,-7.38393526516)) ;
#252=CARTESIAN_POINT('Control Point',(-1.90727019641,13.2296312362,-7.40905190019)) ;
#253=CARTESIAN_POINT('Control Point',(-1.72211269677,12.8774014894,-7.45953645142)) ;
#254=CARTESIAN_POINT('Control Point',(-1.28897762209,12.3865886991,-7.55301560568)) ;
#255=CARTESIAN_POINT('Control Point',(-0.707015766435,12.1024567398,-7.62300375453)) ;
#256=CARTESIAN_POINT('Control Point',(-0.456133777087,12.0267637898,-7.64301538818)) ;
#257=CARTESIAN_POINT('Control Point',(0.0618264992728,11.9594167867,-7.66059587846)) ;
#258=CARTESIAN_POINT('Control Point',(0.574363015875,12.0580600056,-7.63483688364)) ;
#259=CARTESIAN_POINT('Control Point',(0.819330880608,12.1483866902,-7.61140812551)) ;
#260=CARTESIAN_POINT('Control Point',(1.361286639,12.4541512499,-7.53837337499)) ;
#261=CARTESIAN_POINT('Control Point',(1.75524594393,12.9429808579,-7.45048637133)) ;
#262=CARTESIAN_POINT('Control Point',(1.91838267189,13.2772630759,-7.4060419942)) ;
#263=CARTESIAN_POINT('Control Point',(2.,13.6386307636,-7.38393526516)) ;
#264=CARTESIAN_POINT('Control Point',(2.,14.,-7.38393526516)) ;
#265=CARTESIAN_POINT('Vertex',(-2.,14.,-7.38393526516)) ;
#267=CARTESIAN_POINT('Vertex',(2.,14.,-7.38393526516)) ;
#271=CARTESIAN_POINT('Control Point',(2.,14.,-7.38393526516)) ;
#272=CARTESIAN_POINT('Control Point',(2.,14.3851852616,-7.38393526516)) ;
#273=CARTESIAN_POINT('Control Point',(1.90727019641,14.7703687637,-7.40905190019)) ;
#274=CARTESIAN_POINT('Control Point',(1.72211269676,15.1225985106,-7.45953645142)) ;
#275=CARTESIAN_POINT('Control Point',(1.28897762209,15.6134113009,-7.55301560568)) ;
#276=CARTESIAN_POINT('Control Point',(0.707015766452,15.8975432602,-7.62300375453)) ;
#277=CARTESIAN_POINT('Control Point',(0.456133777068,15.9732362102,-7.64301538818)) ;
#278=CARTESIAN_POINT('Control Point',(-0.0618264992781,16.0405832132,-7.66059587846)) ;
#279=CARTESIAN_POINT('Control Point',(-0.574363015867,15.9419399944,-7.63483688364)) ;
#280=CARTESIAN_POINT('Control Point',(-0.819330880615,15.8516133098,-7.61140812551)) ;
#281=CARTESIAN_POINT('Control Point',(-1.36128663897,15.5458487501,-7.538373375)) ;
#282=CARTESIAN_POINT('Control Point',(-1.75524594388,15.0570191421,-7.45048637134)) ;
#283=CARTESIAN_POINT('Control Point',(-1.91838267191,14.722736924,-7.4060419942)) ;
#284=CARTESIAN_POINT('Control Point',(-2.,14.3613692363,-7.38393526516)) ;
#285=CARTESIAN_POINT('Control Point',(-2.,14.,-7.38393526516)) ;
#292=CARTESIAN_POINT('Axis2P3D Location',(0.,14.,0.)) ;
#297=CARTESIAN_POINT('Line Origine',(-2.42109896995,13.75,-4.43179193755)) ;
#302=CARTESIAN_POINT('Line Origine',(2.42109896995,13.75,4.43179193755)) ;
#314=CARTESIAN_POINT('Control Point',(-2.,14.,4.63707882184)) ;
#315=CARTESIAN_POINT('Control Point',(-2.,13.7429726581,4.63707882184)) ;
#316=CARTESIAN_POINT('Control Point',(-1.95871059096,13.4859461819,4.65488719243)) ;
#317=CARTESIAN_POINT('Control Point',(-1.87613059588,13.2398584009,4.69057476144)) ;
#318=CARTESIAN_POINT('Control Point',(-1.57758218625,12.6681870201,4.80729375797)) ;
#319=CARTESIAN_POINT('Control Point',(-1.07942677385,12.250573515,4.94958298187)) ;
#320=CARTESIAN_POINT('Control Point',(-0.720246866169,12.071290129,5.02181107285)) ;
#321=CARTESIAN_POINT('Control Point',(0.0658961671776,11.9060981037,5.08714017286)) ;
#322=CARTESIAN_POINT('Control Point',(0.837967117779,12.1204045835,5.00236793867)) ;
#323=CARTESIAN_POINT('Control Point',(1.18238848468,12.3191829335,4.92445349935)) ;
#324=CARTESIAN_POINT('Control Point',(1.63608398839,12.7475335462,4.78550314181)) ;
#325=CARTESIAN_POINT('Control Point',(1.89812156478,13.3088885669,4.68107239146)) ;
#326=CARTESIAN_POINT('Control Point',(1.9660512831,13.533876492,4.65172110773)) ;
#327=CARTESIAN_POINT('Control Point',(2.,13.7669378901,4.63707882184)) ;
#328=CARTESIAN_POINT('Control Point',(2.,14.,4.63707882184)) ;
#329=CARTESIAN_POINT('Vertex',(-2.,14.,4.63707882185)) ;
#331=CARTESIAN_POINT('Vertex',(2.,14.,4.63707882184)) ;
#335=CARTESIAN_POINT('Control Point',(2.,14.,4.63707882184)) ;
#336=CARTESIAN_POINT('Control Point',(2.,14.2570273419,4.63707882184)) ;
#337=CARTESIAN_POINT('Control Point',(1.95871059096,14.5140538181,4.65488719243)) ;
#338=CARTESIAN_POINT('Control Point',(1.87613059589,14.7601415991,4.69057476144)) ;
#339=CARTESIAN_POINT('Control Point',(1.57758218625,15.3318129799,4.80729375797)) ;
#340=CARTESIAN_POINT('Control Point',(1.07942677384,15.749426485,4.94958298187)) ;
#341=CARTESIAN_POINT('Control Point',(0.720246866186,15.928709871,5.02181107285)) ;
#342=CARTESIAN_POINT('Control Point',(-0.065896167186,16.0939018963,5.08714017286)) ;
#343=CARTESIAN_POINT('Control Point',(-0.83796711781,15.8795954165,5.00236793867)) ;
#344=CARTESIAN_POINT('Control Point',(-1.18238848465,15.6808170665,4.92445349935)) ;
#345=CARTESIAN_POINT('Control Point',(-1.63608398839,15.2524664538,4.78550314181)) ;
#346=CARTESIAN_POINT('Control Point',(-1.89812156478,14.6911114331,4.68107239146)) ;
#347=CARTESIAN_POINT('Control Point',(-1.9660512831,14.466123508,4.65172110773)) ;
#348=CARTESIAN_POINT('Control Point',(-2.,14.2330621099,4.63707882184)) ;
#349=CARTESIAN_POINT('Control Point',(-2.,14.,4.63707882184)) ;
#363=CARTESIAN_POINT('Control Point',(2.,14.,-4.63707882184)) ;
#364=CARTESIAN_POINT('Control Point',(2.,14.2570273419,-4.63707882184)) ;
#365=CARTESIAN_POINT('Control Point',(1.95871059096,14.5140538181,-4.65488719243)) ;
#366=CARTESIAN_POINT('Control Point',(1.87613059589,14.7601415991,-4.69057476144)) ;
#367=CARTESIAN_POINT('Control Point',(1.57758218626,15.3318129799,-4.80729375796)) ;
#368=CARTESIAN_POINT('Control Point',(1.07942677388,15.749426485,-4.94958298186)) ;
#369=CARTESIAN_POINT('Control Point',(0.720246866129,15.928709871,-5.02181107285)) ;
#370=CARTESIAN_POINT('Control Point',(-0.0658961672054,16.0939018963,-5.08714017286)) ;
#371=CARTESIAN_POINT('Control Point',(-0.837967117795,15.8795954165,-5.00236793867)) ;
#372=CARTESIAN_POINT('Control Point',(-1.18238848467,15.6808170665,-4.92445349935)) ;
#373=CARTESIAN_POINT('Control Point',(-1.63608398839,15.2524664538,-4.78550314181)) ;
#374=CARTESIAN_POINT('Control Point',(-1.89812156478,14.6911114331,-4.68107239146)) ;
#375=CARTESIAN_POINT('Control Point',(-1.9660512831,14.466123508,-4.65172110773)) ;
#376=CARTESIAN_POINT('Control Point',(-2.,14.2330621099,-4.63707882184)) ;
#377=CARTESIAN_POINT('Control Point',(-2.,14.,-4.63707882184)) ;
#378=CARTESIAN_POINT('Vertex',(2.,14.,-4.63707882184)) ;
#380=CARTESIAN_POINT('Vertex',(-2.,14.,-4.63707882185)) ;
#384=CARTESIAN_POINT('Control Point',(-2.,14.,-4.63707882184)) ;
#385=CARTESIAN_POINT('Control Point',(-2.,13.7429726581,-4.63707882184)) ;
#386=CARTESIAN_POINT('Control Point',(-1.95871059096,13.4859461819,-4.65488719243)) ;
#387=CARTESIAN_POINT('Control Point',(-1.87613059588,13.2398584009,-4.69057476144)) ;
#388=CARTESIAN_POINT('Control Point',(-1.57758218626,12.6681870201,-4.80729375796)) ;
#389=CARTESIAN_POINT('Control Point',(-1.07942677388,12.250573515,-4.94958298186)) ;
#390=CARTESIAN_POINT('Control Point',(-0.720246866132,12.071290129,-5.02181107285)) ;
#391=CARTESIAN_POINT('Control Point',(0.0658961672161,11.9060981037,-5.08714017286)) ;
#392=CARTESIAN_POINT('Control Point',(0.837967117817,12.1204045835,-5.00236793867)) ;
#393=CARTESIAN_POINT('Control Point',(1.18238848465,12.3191829335,-4.92445349935)) ;
#394=CARTESIAN_POINT('Control Point',(1.63608398838,12.7475335462,-4.78550314181)) ;
#395=CARTESIAN_POINT('Control Point',(1.89812156477,13.3088885669,-4.68107239147)) ;
#396=CARTESIAN_POINT('Control Point',(1.9660512831,13.5338764921,-4.65172110773)) ;
#397=CARTESIAN_POINT('Control Point',(2.,13.7669378901,-4.63707882184)) ;
#398=CARTESIAN_POINT('Control Point',(2.,14.,-4.63707882184)) ;
#405=CARTESIAN_POINT('Axis2P3D Location',(0.,14.,0.)) ;
#410=CARTESIAN_POINT('Line Origine',(2.,14.,0.)) ;
#415=CARTESIAN_POINT('Line Origine',(-2.,14.,0.)) ;
#434=CARTESIAN_POINT('Line Origine',(-2.,14.,0.)) ;
#439=CARTESIAN_POINT('Line Origine',(2.,14.,0.)) ;
#461=CARTESIAN_POINT('Axis2P3D Location',(0.,0.,0.)) ;
#53=DIRECTION('Axis2P3D Direction',(0.,1.,0.)) ;
#54=DIRECTION('Axis2P3D XDirection',(0.479425538604,0.,0.87758256189)) ;
#58=DIRECTION('Axis2P3D Direction',(0.,1.,0.)) ;
#67=DIRECTION('Vector Direction',(0.339005049421,0.707106781187,0.620544580564)) ;
#74=DIRECTION('Axis2P3D Direction',(0.,1.,0.)) ;
#81=DIRECTION('Vector Direction',(-0.339005049421,0.707106781187,-0.620544580564)) ;
#93=DIRECTION('Axis2P3D Direction',(0.,1.,0.)) ;
#98=DIRECTION('Axis2P3D Direction',(0.,1.,0.)) ;
#110=DIRECTION('Axis2P3D Direction',(0.,1.,0.)) ;
#111=DIRECTION('Axis2P3D XDirection',(1.,-0.,0.)) ;
#115=DIRECTION('Axis2P3D Direction',(0.,1.,0.)) ;
#124=DIRECTION('Axis2P3D Direction',(0.,1.,0.)) ;
#133=DIRECTION('Axis2P3D Direction',(0.,1.,0.)) ;
#142=DIRECTION('Axis2P3D Direction',(0.,1.,0.)) ;
#152=DIRECTION('Axis2P3D Direction',(0.,1.,0.)) ;
#153=DIRECTION('Axis2P3D XDirection',(1.,-0.,0.)) ;
#157=DIRECTION('Axis2P3D Direction',(0.,1.,0.)) ;
#166=DIRECTION('Axis2P3D Direction',(0.,1.,0.)) ;
#180=DIRECTION('Axis2P3D Direction',(0.,1.,0.)) ;
#181=DIRECTION('Axis2P3D XDirection',(0.479425538604,-0.,0.87758256189)) ;
#185=DIRECTION('Vector Direction',(0.,1.,0.)) ;
#190=DIRECTION('Vector Direction',(0.,1.,0.)) ;
#293=DIRECTION('Axis2P3D Direction',(0.,1.,0.)) ;
#294=DIRECTION('Axis2P3D XDirection',(0.479425538604,-0.,0.87758256189)) ;
#298=DIRECTION('Vector Direction',(0.,1.,0.)) ;
#303=DIRECTION('Vector Direction',(0.,1.,0.)) ;
#406=DIRECTION('Axis2P3D Direction',(0.,0.,1.)) ;
#407=DIRECTION('Axis2P3D XDirection',(1.,0.,0.)) ;
#411=DIRECTION('Vector Direction',(0.,0.,1.)) ;
#416=DIRECTION('Vector Direction',(0.,0.,1.)) ;
#435=DIRECTION('Vector Direction',(0.,0.,1.)) ;
#440=DIRECTION('Vector Direction',(0.,0.,1.)) ;
#462=DIRECTION('Axis2P3D Direction',(0.,0.,1.)) ;
#463=DIRECTION('Axis2P3D XDirection',(1.,0.,0.)) ;
#48=AXIS2_PLACEMENT_3D(' ',#47,$,$) ;
#55=AXIS2_PLACEMENT_3D('Cone Axis2P3D',#52,#53,#54) ;
#59=AXIS2_PLACEMENT_3D('Circle Axis2P3D',#57,#58,$) ;
#75=AXIS2_PLACEMENT_3D('Circle Axis2P3D',#73,#74,$) ;
#94=AXIS2_PLACEMENT_3D('Circle Axis2P3D',#92,#93,$) ;
#99=AXIS2_PLACEMENT_3D('Circle Axis2P3D',#97,#98,$) ;
#112=AXIS2_PLACEMENT_3D('Plane Axis2P3D',#109,#110,#111) ;
#116=AXIS2_PLACEMENT_3D('Circle Axis2P3D',#114,#115,$) ;
#125=AXIS2_PLACEMENT_3D('Circle Axis2P3D',#123,#124,$) ;
#134=AXIS2_PLACEMENT_3D('Circle Axis2P3D',#132,#133,$) ;
#143=AXIS2_PLACEMENT_3D('Circle Axis2P3D',#141,#142,$) ;
#154=AXIS2_PLACEMENT_3D('Plane Axis2P3D',#151,#152,#153) ;
#158=AXIS2_PLACEMENT_3D('Circle Axis2P3D',#156,#157,$) ;
#167=AXIS2_PLACEMENT_3D('Circle Axis2P3D',#165,#166,$) ;
#182=AXIS2_PLACEMENT_3D('Cylinder Axis2P3D',#179,#180,#181) ;
#295=AXIS2_PLACEMENT_3D('Cylinder Axis2P3D',#292,#293,#294) ;
#408=AXIS2_PLACEMENT_3D('Cylinder Axis2P3D',#405,#406,#407) ;
#464=AXIS2_PLACEMENT_3D('Absolute Axis System',#461,#462,#463) ;
#40=PRODUCT_DEFINITION_SHAPE(' ',' ',#14) ;
#31=APPROVAL_PERSON_ORGANIZATION(#25,#21,#19) ;
#25=PERSON_AND_ORGANIZATION(#22,#23) ;
#22=PERSON(' ',' ',' ',$,$,$) ;
#23=ORGANIZATION(' ',' ',' ') ;
#21=APPROVAL(#20,' ') ;
#20=APPROVAL_STATUS('not_yet_approved') ;
#19=APPROVAL_ROLE('APPROVER') ;
#13=DATE_AND_TIME(#11,#12) ;
#12=LOCAL_TIME(23,16,45.,#10) ;
#10=COORDINATED_UNIVERSAL_TIME_OFFSET(0,0,.AHEAD.) ;
#86=ORIENTED_EDGE('',*,*,#65,.F.) ;
#87=ORIENTED_EDGE('',*,*,#72,.T.) ;
#88=ORIENTED_EDGE('',*,*,#79,.T.) ;
#89=ORIENTED_EDGE('',*,*,#84,.F.) ;
#103=ORIENTED_EDGE('',*,*,#96,.F.) ;
#104=ORIENTED_EDGE('',*,*,#84,.T.) ;
#105=ORIENTED_EDGE('',*,*,#101,.T.) ;
#106=ORIENTED_EDGE('',*,*,#72,.F.) ;
#129=ORIENTED_EDGE('',*,*,#122,.F.) ;
#130=ORIENTED_EDGE('',*,*,#127,.F.) ;
#147=ORIENTED_EDGE('',*,*,#140,.T.) ;
#148=ORIENTED_EDGE('',*,*,#145,.T.) ;
#171=ORIENTED_EDGE('',*,*,#164,.T.) ;
#172=ORIENTED_EDGE('',*,*,#169,.T.) ;
#175=ORIENTED_EDGE('',*,*,#79,.F.) ;
#176=ORIENTED_EDGE('',*,*,#101,.F.) ;
#195=ORIENTED_EDGE('',*,*,#164,.F.) ;
#196=ORIENTED_EDGE('',*,*,#188,.T.) ;
#197=ORIENTED_EDGE('',*,*,#127,.T.) ;
#198=ORIENTED_EDGE('',*,*,#193,.F.) ;
#239=ORIENTED_EDGE('',*,*,#220,.F.) ;
#240=ORIENTED_EDGE('',*,*,#237,.T.) ;
#244=ORIENTED_EDGE('',*,*,#169,.F.) ;
#245=ORIENTED_EDGE('',*,*,#193,.T.) ;
#246=ORIENTED_EDGE('',*,*,#122,.T.) ;
#247=ORIENTED_EDGE('',*,*,#188,.F.) ;
#288=ORIENTED_EDGE('',*,*,#269,.T.) ;
#289=ORIENTED_EDGE('',*,*,#286,.T.) ;
#308=ORIENTED_EDGE('',*,*,#140,.F.) ;
#309=ORIENTED_EDGE('',*,*,#301,.T.) ;
#310=ORIENTED_EDGE('',*,*,#96,.T.) ;
#311=ORIENTED_EDGE('',*,*,#306,.F.) ;
#352=ORIENTED_EDGE('',*,*,#333,.T.) ;
#353=ORIENTED_EDGE('',*,*,#350,.T.) ;
#357=ORIENTED_EDGE('',*,*,#145,.F.) ;
#358=ORIENTED_EDGE('',*,*,#306,.T.) ;
#359=ORIENTED_EDGE('',*,*,#65,.T.) ;
#360=ORIENTED_EDGE('',*,*,#301,.F.) ;
#401=ORIENTED_EDGE('',*,*,#382,.F.) ;
#402=ORIENTED_EDGE('',*,*,#399,.F.) ;
#421=ORIENTED_EDGE('',*,*,#414,.T.) ;
#422=ORIENTED_EDGE('',*,*,#269,.F.) ;
#423=ORIENTED_EDGE('',*,*,#419,.F.) ;
#424=ORIENTED_EDGE('',*,*,#399,.T.) ;
#428=ORIENTED_EDGE('',*,*,#419,.T.) ;
#429=ORIENTED_EDGE('',*,*,#286,.F.) ;
#430=ORIENTED_EDGE('',*,*,#414,.F.) ;
#431=ORIENTED_EDGE('',*,*,#382,.T.) ;
#445=ORIENTED_EDGE('',*,*,#438,.F.) ;
#446=ORIENTED_EDGE('',*,*,#220,.T.) ;
#447=ORIENTED_EDGE('',*,*,#443,.T.) ;
#448=ORIENTED_EDGE('',*,*,#333,.F.) ;
#452=ORIENTED_EDGE('',*,*,#443,.F.) ;
#453=ORIENTED_EDGE('',*,*,#237,.F.) ;
#454=ORIENTED_EDGE('',*,*,#438,.T.) ;
#455=ORIENTED_EDGE('',*,*,#350,.F.) ;
#149=FACE_BOUND('',#146,.T.) ;
#177=FACE_BOUND('',#174,.T.) ;
#241=FACE_BOUND('',#238,.T.) ;
#290=FACE_BOUND('',#287,.T.) ;
#354=FACE_BOUND('',#351,.T.) ;
#403=FACE_BOUND('',#400,.T.) ;
#51=CLOSED_SHELL('Closed Shell',(#91,#108,#150,#178,#242,#291,#355,#404,#426,#433,#450,#457)) ;
#68=VECTOR('Line Direction',#67,1.) ;
#82=VECTOR('Line Direction',#81,1.) ;
#186=VECTOR('Line Direction',#185,1.) ;
#191=VECTOR('Line Direction',#190,1.) ;
#299=VECTOR('Line Direction',#298,1.) ;
#304=VECTOR('Line Direction',#303,1.) ;
#412=VECTOR('Line Direction',#411,1.) ;
#417=VECTOR('Line Direction',#416,1.) ;
#436=VECTOR('Line Direction',#435,1.) ;
#441=VECTOR('Line Direction',#440,1.) ;
#459=ADVANCED_BREP_SHAPE_REPRESENTATION('NONE',(#458),#46) ;
#49=SHAPE_REPRESENTATION(' ',(#48),#46) ;
#91=ADVANCED_FACE('PartBody',(#90),#56,.F.) ;
#108=ADVANCED_FACE('PartBody',(#107),#56,.F.) ;
#150=ADVANCED_FACE('PartBody',(#131,#149),#113,.F.) ;
#178=ADVANCED_FACE('PartBody',(#173,#177),#155,.T.) ;
#242=ADVANCED_FACE('PartBody',(#199,#241),#183,.T.) ;
#291=ADVANCED_FACE('PartBody',(#248,#290),#183,.T.) ;
#355=ADVANCED_FACE('PartBody',(#312,#354),#296,.F.) ;
#404=ADVANCED_FACE('PartBody',(#361,#403),#296,.F.) ;
#426=ADVANCED_FACE('PartBody',(#425),#409,.F.) ;
#433=ADVANCED_FACE('PartBody',(#432),#409,.F.) ;
#450=ADVANCED_FACE('PartBody',(#449),#409,.F.) ;
#457=ADVANCED_FACE('PartBody',(#456),#409,.F.) ;
#4=APPLICATION_PROTOCOL_DEFINITION('international standard','config_control_design',1994,#1) ;
#32=APPROVAL_DATE_TIME(#13,#21) ;
#200=B_SPLINE_CURVE_WITH_KNOTS('',5,(#201,#202,#203,#204,#205,#206,#207,#208,#209,#210,#211,#212,#213,#214,#215),.UNSPECIFIED.,.F.,.U.,(6,3,3,3,6),(0.,2.72367110528,4.54852452888,6.36882187006,8.92408824557),.UNSPECIFIED.) ;
#221=B_SPLINE_CURVE_WITH_KNOTS('',5,(#222,#223,#224,#225,#226,#227,#228,#229,#230,#231,#232,#233,#234,#235,#236),.UNSPECIFIED.,.F.,.U.,(6,3,3,3,6),(0.,2.72367110512,4.54852452876,6.36882186983,8.92408824575),.UNSPECIFIED.) ;
#249=B_SPLINE_CURVE_WITH_KNOTS('',5,(#250,#251,#252,#253,#254,#255,#256,#257,#258,#259,#260,#261,#262,#263,#264),.UNSPECIFIED.,.F.,.U.,(6,3,3,3,6),(0.,2.72367110513,4.5485245288,6.3688218698,8.92408824543),.UNSPECIFIED.) ;
#270=B_SPLINE_CURVE_WITH_KNOTS('',5,(#271,#272,#273,#274,#275,#276,#277,#278,#279,#280,#281,#282,#283,#284,#285),.UNSPECIFIED.,.F.,.U.,(6,3,3,3,6),(0.,2.7236711051,4.5485245287,6.36882186968,8.92408824502),.UNSPECIFIED.) ;
#313=B_SPLINE_CURVE_WITH_KNOTS('',5,(#314,#315,#316,#317,#318,#319,#320,#321,#322,#323,#324,#325,#326,#327,#328),.UNSPECIFIED.,.F.,.U.,(6,3,3,3,6),(0.,1.81745776411,4.57954175941,7.32973980569,8.97773778891),.UNSPECIFIED.) ;
#334=B_SPLINE_CURVE_WITH_KNOTS('',5,(#335,#336,#337,#338,#339,#340,#341,#342,#343,#344,#345,#346,#347,#348,#349),.UNSPECIFIED.,.F.,.U.,(6,3,3,3,6),(0.,1.81745776414,4.5795417595,7.3297398059,8.97773778914),.UNSPECIFIED.) ;
#362=B_SPLINE_CURVE_WITH_KNOTS('',5,(#363,#364,#365,#366,#367,#368,#369,#370,#371,#372,#373,#374,#375,#376,#377),.UNSPECIFIED.,.F.,.U.,(6,3,3,3,6),(0.,1.81745776416,4.57954175932,7.32973980566,8.97773778888),.UNSPECIFIED.) ;
#383=B_SPLINE_CURVE_WITH_KNOTS('',5,(#384,#385,#386,#387,#388,#389,#390,#391,#392,#393,#394,#395,#396,#397,#398),.UNSPECIFIED.,.F.,.U.,(6,3,3,3,6),(0.,1.81745776413,4.5795417593,7.32973980571,8.9777377889),.UNSPECIFIED.) ;
#458=MANIFOLD_SOLID_BREP('PartBody',#51) ;
#11=CALENDAR_DATE(2020,30,1) ;
#30=CC_DESIGN_APPROVAL(#21,(#16,#6,#14)) ;
#18=CC_DESIGN_DATE_AND_TIME_ASSIGNMENT(#13,#17,(#16)) ;
#29=CC_DESIGN_DATE_AND_TIME_ASSIGNMENT(#13,#28,(#14)) ;
#17=DATE_TIME_ROLE('classification_date') ;
#28=DATE_TIME_ROLE('creation_date') ;
#27=CC_DESIGN_PERSON_AND_ORGANIZATION_ASSIGNMENT(#25,#26,(#16)) ;
#33=CC_DESIGN_PERSON_AND_ORGANIZATION_ASSIGNMENT(#25,#34,(#6)) ;
#35=CC_DESIGN_PERSON_AND_ORGANIZATION_ASSIGNMENT(#25,#36,(#6,#14)) ;
#37=CC_DESIGN_PERSON_AND_ORGANIZATION_ASSIGNMENT(#25,#38,(#5)) ;
#26=PERSON_AND_ORGANIZATION_ROLE('classification_officer') ;
#34=PERSON_AND_ORGANIZATION_ROLE('design_supplier') ;
#36=PERSON_AND_ORGANIZATION_ROLE('creator') ;
#38=PERSON_AND_ORGANIZATION_ROLE('design_owner') ;
#39=CC_DESIGN_SECURITY_CLASSIFICATION(#16,(#6)) ;
#60=CIRCLE('generated circle',#59,5.05) ;
#76=CIRCLE('generated circle',#75,5.55) ;
#95=CIRCLE('generated circle',#94,5.05) ;
#100=CIRCLE('generated circle',#99,5.55) ;
#117=CIRCLE('generated circle',#116,7.65) ;
#126=CIRCLE('generated circle',#125,7.65) ;
#135=CIRCLE('generated circle',#134,5.05) ;
#144=CIRCLE('generated circle',#143,5.05) ;
#159=CIRCLE('generated circle',#158,7.65) ;
#168=CIRCLE('generated circle',#167,7.65) ;
#56=CONICAL_SURFACE('Cone',#55,5.05,0.785398163397) ;
#460=SHAPE_REPRESENTATION_RELATIONSHIP(' ',' ',#49,#459) ;
#183=CYLINDRICAL_SURFACE('generated cylinder',#182,7.65) ;
#296=CYLINDRICAL_SURFACE('generated cylinder',#295,5.05) ;
#409=CYLINDRICAL_SURFACE('generated cylinder',#408,2.) ;
#3=DESIGN_CONTEXT(' ',#1,'design') ;
#65=EDGE_CURVE('',#62,#64,#60,.T.) ;
#72=EDGE_CURVE('',#62,#71,#69,.T.) ;
#79=EDGE_CURVE('',#71,#78,#76,.T.) ;
#84=EDGE_CURVE('',#64,#78,#83,.T.) ;
#96=EDGE_CURVE('',#64,#62,#95,.T.) ;
#101=EDGE_CURVE('',#78,#71,#100,.T.) ;
#122=EDGE_CURVE('',#119,#121,#117,.T.) ;
#127=EDGE_CURVE('',#121,#119,#126,.T.) ;
#140=EDGE_CURVE('',#137,#139,#135,.T.) ;
#145=EDGE_CURVE('',#139,#137,#144,.T.) ;
#164=EDGE_CURVE('',#161,#163,#159,.T.) ;
#169=EDGE_CURVE('',#163,#161,#168,.T.) ;
#188=EDGE_CURVE('',#161,#121,#187,.F.) ;
#193=EDGE_CURVE('',#163,#119,#192,.F.) ;
#220=EDGE_CURVE('',#217,#219,#200,.T.) ;
#237=EDGE_CURVE('',#217,#219,#221,.T.) ;
#269=EDGE_CURVE('',#266,#268,#249,.T.) ;
#286=EDGE_CURVE('',#268,#266,#270,.T.) ;
#301=EDGE_CURVE('',#137,#64,#300,.T.) ;
#306=EDGE_CURVE('',#139,#62,#305,.T.) ;
#333=EDGE_CURVE('',#330,#332,#313,.T.) ;
#350=EDGE_CURVE('',#332,#330,#334,.T.) ;
#382=EDGE_CURVE('',#379,#381,#362,.T.) ;
#399=EDGE_CURVE('',#381,#379,#383,.T.) ;
#414=EDGE_CURVE('',#379,#268,#413,.F.) ;
#419=EDGE_CURVE('',#381,#266,#418,.F.) ;
#438=EDGE_CURVE('',#217,#330,#437,.F.) ;
#443=EDGE_CURVE('',#219,#332,#442,.F.) ;
#85=EDGE_LOOP('',(#86,#87,#88,#89)) ;
#102=EDGE_LOOP('',(#103,#104,#105,#106)) ;
#128=EDGE_LOOP('',(#129,#130)) ;
#146=EDGE_LOOP('',(#147,#148)) ;
#170=EDGE_LOOP('',(#171,#172)) ;
#174=EDGE_LOOP('',(#175,#176)) ;
#194=EDGE_LOOP('',(#195,#196,#197,#198)) ;
#238=EDGE_LOOP('',(#239,#240)) ;
#243=EDGE_LOOP('',(#244,#245,#246,#247)) ;
#287=EDGE_LOOP('',(#288,#289)) ;
#307=EDGE_LOOP('',(#308,#309,#310,#311)) ;
#351=EDGE_LOOP('',(#352,#353)) ;
#356=EDGE_LOOP('',(#357,#358,#359,#360)) ;
#400=EDGE_LOOP('',(#401,#402)) ;
#420=EDGE_LOOP('',(#421,#422,#423,#424)) ;
#427=EDGE_LOOP('',(#428,#429,#430,#431)) ;
#444=EDGE_LOOP('',(#445,#446,#447,#448)) ;
#451=EDGE_LOOP('',(#452,#453,#454,#455)) ;
#90=FACE_OUTER_BOUND('',#85,.T.) ;
#107=FACE_OUTER_BOUND('',#102,.T.) ;
#131=FACE_OUTER_BOUND('',#128,.T.) ;
#173=FACE_OUTER_BOUND('',#170,.T.) ;
#199=FACE_OUTER_BOUND('',#194,.T.) ;
#248=FACE_OUTER_BOUND('',#243,.T.) ;
#312=FACE_OUTER_BOUND('',#307,.T.) ;
#361=FACE_OUTER_BOUND('',#356,.T.) ;
#425=FACE_OUTER_BOUND('',#420,.T.) ;
#432=FACE_OUTER_BOUND('',#427,.T.) ;
#449=FACE_OUTER_BOUND('',#444,.T.) ;
#456=FACE_OUTER_BOUND('',#451,.T.) ;
#45=UNCERTAINTY_MEASURE_WITH_UNIT(LENGTH_MEASURE(0.005),#41,'distance_accuracy_value','CONFUSED CURVE UNCERTAINTY') ;
#69=LINE('Line',#66,#68) ;
#83=LINE('Line',#80,#82) ;
#187=LINE('Line',#184,#186) ;
#192=LINE('Line',#189,#191) ;
#300=LINE('Line',#297,#299) ;
#305=LINE('Line',#302,#304) ;
#413=LINE('Line',#410,#412) ;
#418=LINE('Line',#415,#417) ;
#437=LINE('Line',#434,#436) ;
#442=LINE('Line',#439,#441) ;
#2=MECHANICAL_CONTEXT(' ',#1,'mechanical') ;
#24=PERSONAL_ADDRESS(' ',' ',' ',' ',' ',' ',' ',' ',' ',' ',' ',' ',(#22),' ') ;
#113=PLANE('',#112) ;
#155=PLANE('',#154) ;
#43=PLANE_ANGLE_MEASURE_WITH_UNIT(PLANE_ANGLE_MEASURE(0.0174532925199),#42) ;
#7=PRODUCT_CATEGORY('part',$) ;
#9=PRODUCT_CATEGORY_RELATIONSHIP(' ',' ',#7,#8) ;
#6=PRODUCT_DEFINITION_FORMATION_WITH_SPECIFIED_SOURCE('',' ',#5,.NOT_KNOWN.) ;
#8=PRODUCT_RELATED_PRODUCT_CATEGORY('detail',$,(#5)) ;
#50=SHAPE_DEFINITION_REPRESENTATION(#40,#49) ;
#62=VERTEX_POINT('',#61) ;
#64=VERTEX_POINT('',#63) ;
#71=VERTEX_POINT('',#70) ;
#78=VERTEX_POINT('',#77) ;
#119=VERTEX_POINT('',#118) ;
#121=VERTEX_POINT('',#120) ;
#137=VERTEX_POINT('',#136) ;
#139=VERTEX_POINT('',#138) ;
#161=VERTEX_POINT('',#160) ;
#163=VERTEX_POINT('',#162) ;
#217=VERTEX_POINT('',#216) ;
#219=VERTEX_POINT('',#218) ;
#266=VERTEX_POINT('',#265) ;
#268=VERTEX_POINT('',#267) ;
#330=VERTEX_POINT('',#329) ;
#332=VERTEX_POINT('',#331) ;
#379=VERTEX_POINT('',#378) ;
#381=VERTEX_POINT('',#380) ;
#41=(LENGTH_UNIT()NAMED_UNIT(*)SI_UNIT(.MILLI.,.METRE.)) ;
#42=(NAMED_UNIT(*)PLANE_ANGLE_UNIT()SI_UNIT($,.RADIAN.)) ;
#44=(NAMED_UNIT(*)SI_UNIT($,.STERADIAN.)SOLID_ANGLE_UNIT()) ;
#46=(GEOMETRIC_REPRESENTATION_CONTEXT(3)GLOBAL_UNCERTAINTY_ASSIGNED_CONTEXT((#45))GLOBAL_UNIT_ASSIGNED_CONTEXT((#41,#42,#44))REPRESENTATION_CONTEXT(' ',' ')) ;
ENDSEC;
END-ISO-10303-21;
