ISO-10303-21;
HEADER;
FILE_DESCRIPTION(('CATIA V5 STEP Exchange'),'2;1');

FILE_NAME('C:\\ENTREPRISE\\LOCAL\\Eoliene\\CAO\\EOLX1.2 Rotor 4 pales Vilebrequin\\EOLX1.2-D-110-001_A.stp','2020-01-30T22:12:36+00:00',('none'),('none'),'CATIA Version 5 Release 21 GA (IN-10)','CATIA V5 STEP AP203','none');

FILE_SCHEMA(('CONFIG_CONTROL_DESIGN'));

ENDSEC;
/* file written by CATIA V5R21 */
DATA;
#5=PRODUCT('EOLX1.2-D-110-001_A','','',(#2)) ;
#1=APPLICATION_CONTEXT('configuration controlled 3D design of mechanical parts and assemblies') ;
#14=PRODUCT_DEFINITION('',' ',#6,#3) ;
#16=SECURITY_CLASSIFICATION(' ',' ',#15) ;
#15=SECURITY_CLASSIFICATION_LEVEL('unclassified') ;
#47=CARTESIAN_POINT(' ',(0.,0.,0.)) ;
#52=CARTESIAN_POINT('Axis2P3D Location',(0.,0.5,0.)) ;
#57=CARTESIAN_POINT('Axis2P3D Location',(0.,2.6645352591E-015,0.)) ;
#61=CARTESIAN_POINT('Vertex',(3.88334686269,2.6645352591E-015,7.10841875131)) ;
#63=CARTESIAN_POINT('Vertex',(-3.88334686269,2.6645352591E-015,-7.10841875131)) ;
#66=CARTESIAN_POINT('Line Origine',(3.76349047804,0.25,6.88902311084)) ;
#70=CARTESIAN_POINT('Vertex',(3.64363409339,0.5,6.66962747037)) ;
#73=CARTESIAN_POINT('Axis2P3D Location',(0.,0.5,0.)) ;
#77=CARTESIAN_POINT('Vertex',(-3.64363409339,0.5,-6.66962747037)) ;
#80=CARTESIAN_POINT('Line Origine',(-3.76349047804,0.25,-6.88902311084)) ;
#92=CARTESIAN_POINT('Axis2P3D Location',(0.,2.6645352591E-015,0.)) ;
#97=CARTESIAN_POINT('Axis2P3D Location',(0.,0.5,0.)) ;
#109=CARTESIAN_POINT('Axis2P3D Location',(0.,11.25,0.)) ;
#114=CARTESIAN_POINT('Line Origine',(3.64363409339,11.25,6.66962747037)) ;
#118=CARTESIAN_POINT('Vertex',(3.64363409339,22.,6.66962747037)) ;
#121=CARTESIAN_POINT('Axis2P3D Location',(0.,22.,0.)) ;
#125=CARTESIAN_POINT('Vertex',(-3.64363409339,22.,-6.66962747037)) ;
#128=CARTESIAN_POINT('Line Origine',(-3.64363409339,11.25,-6.66962747037)) ;
#140=CARTESIAN_POINT('Axis2P3D Location',(0.,22.,0.)) ;
#152=CARTESIAN_POINT('Axis2P3D Location',(0.,22.,0.)) ;
#157=CARTESIAN_POINT('Line Origine',(3.76349047804,22.25,6.88902311084)) ;
#161=CARTESIAN_POINT('Vertex',(3.88334686269,22.5,7.10841875131)) ;
#164=CARTESIAN_POINT('Axis2P3D Location',(0.,22.5,0.)) ;
#168=CARTESIAN_POINT('Vertex',(-3.88334686269,22.5,-7.10841875131)) ;
#171=CARTESIAN_POINT('Line Origine',(-3.76349047804,22.25,-6.88902311084)) ;
#183=CARTESIAN_POINT('Axis2P3D Location',(0.,22.5,0.)) ;
#195=CARTESIAN_POINT('Axis2P3D Location',(0.,11.25,0.)) ;
#200=CARTESIAN_POINT('Axis2P3D Location',(0.,22.5,0.)) ;
#204=CARTESIAN_POINT('Vertex',(4.55454261674,22.5,8.33703433796)) ;
#206=CARTESIAN_POINT('Vertex',(-4.55454261674,22.5,-8.33703433796)) ;
#209=CARTESIAN_POINT('Line Origine',(4.55454261674,11.25,8.33703433796)) ;
#213=CARTESIAN_POINT('Vertex',(4.55454261674,0.,8.33703433796)) ;
#216=CARTESIAN_POINT('Axis2P3D Location',(0.,0.,0.)) ;
#220=CARTESIAN_POINT('Vertex',(-4.55454261674,0.,-8.33703433796)) ;
#223=CARTESIAN_POINT('Line Origine',(-4.55454261674,11.25,-8.33703433796)) ;
#235=CARTESIAN_POINT('Axis2P3D Location',(0.,22.5,0.)) ;
#240=CARTESIAN_POINT('Axis2P3D Location',(0.,0.,0.)) ;
#252=CARTESIAN_POINT('Axis2P3D Location',(0.,0.,9.5)) ;
#266=CARTESIAN_POINT('Axis2P3D Location',(0.,22.5,8.1)) ;
#283=CARTESIAN_POINT('Axis2P3D Location',(0.,0.,0.)) ;
#53=DIRECTION('Axis2P3D Direction',(-0.,-1.,-0.)) ;
#54=DIRECTION('Axis2P3D XDirection',(0.479425538604,0.,0.87758256189)) ;
#58=DIRECTION('Axis2P3D Direction',(0.,-1.,-0.)) ;
#67=DIRECTION('Vector Direction',(0.339005049421,-0.707106781187,0.620544580564)) ;
#74=DIRECTION('Axis2P3D Direction',(0.,-1.,-0.)) ;
#81=DIRECTION('Vector Direction',(-0.339005049421,-0.707106781187,-0.620544580564)) ;
#93=DIRECTION('Axis2P3D Direction',(0.,-1.,-0.)) ;
#98=DIRECTION('Axis2P3D Direction',(0.,-1.,-0.)) ;
#110=DIRECTION('Axis2P3D Direction',(0.,1.,0.)) ;
#111=DIRECTION('Axis2P3D XDirection',(0.479425538604,-0.,0.87758256189)) ;
#115=DIRECTION('Vector Direction',(0.,1.,0.)) ;
#122=DIRECTION('Axis2P3D Direction',(0.,1.,0.)) ;
#129=DIRECTION('Vector Direction',(0.,1.,0.)) ;
#141=DIRECTION('Axis2P3D Direction',(0.,1.,0.)) ;
#153=DIRECTION('Axis2P3D Direction',(0.,1.,0.)) ;
#154=DIRECTION('Axis2P3D XDirection',(0.479425538604,0.,0.87758256189)) ;
#158=DIRECTION('Vector Direction',(0.339005049421,0.707106781187,0.620544580564)) ;
#165=DIRECTION('Axis2P3D Direction',(0.,1.,0.)) ;
#172=DIRECTION('Vector Direction',(-0.339005049421,0.707106781187,-0.620544580564)) ;
#184=DIRECTION('Axis2P3D Direction',(0.,1.,0.)) ;
#196=DIRECTION('Axis2P3D Direction',(0.,1.,0.)) ;
#197=DIRECTION('Axis2P3D XDirection',(0.479425538604,-0.,0.87758256189)) ;
#201=DIRECTION('Axis2P3D Direction',(0.,1.,0.)) ;
#210=DIRECTION('Vector Direction',(0.,1.,0.)) ;
#217=DIRECTION('Axis2P3D Direction',(0.,1.,0.)) ;
#224=DIRECTION('Vector Direction',(0.,1.,0.)) ;
#236=DIRECTION('Axis2P3D Direction',(0.,1.,0.)) ;
#241=DIRECTION('Axis2P3D Direction',(0.,1.,0.)) ;
#253=DIRECTION('Axis2P3D Direction',(0.,1.,0.)) ;
#254=DIRECTION('Axis2P3D XDirection',(1.,-0.,0.)) ;
#267=DIRECTION('Axis2P3D Direction',(0.,1.,0.)) ;
#268=DIRECTION('Axis2P3D XDirection',(1.,-0.,0.)) ;
#284=DIRECTION('Axis2P3D Direction',(0.,0.,1.)) ;
#285=DIRECTION('Axis2P3D XDirection',(1.,0.,0.)) ;
#48=AXIS2_PLACEMENT_3D(' ',#47,$,$) ;
#55=AXIS2_PLACEMENT_3D('Cone Axis2P3D',#52,#53,#54) ;
#59=AXIS2_PLACEMENT_3D('Circle Axis2P3D',#57,#58,$) ;
#75=AXIS2_PLACEMENT_3D('Circle Axis2P3D',#73,#74,$) ;
#94=AXIS2_PLACEMENT_3D('Circle Axis2P3D',#92,#93,$) ;
#99=AXIS2_PLACEMENT_3D('Circle Axis2P3D',#97,#98,$) ;
#112=AXIS2_PLACEMENT_3D('Cylinder Axis2P3D',#109,#110,#111) ;
#123=AXIS2_PLACEMENT_3D('Circle Axis2P3D',#121,#122,$) ;
#142=AXIS2_PLACEMENT_3D('Circle Axis2P3D',#140,#141,$) ;
#155=AXIS2_PLACEMENT_3D('Cone Axis2P3D',#152,#153,#154) ;
#166=AXIS2_PLACEMENT_3D('Circle Axis2P3D',#164,#165,$) ;
#185=AXIS2_PLACEMENT_3D('Circle Axis2P3D',#183,#184,$) ;
#198=AXIS2_PLACEMENT_3D('Cylinder Axis2P3D',#195,#196,#197) ;
#202=AXIS2_PLACEMENT_3D('Circle Axis2P3D',#200,#201,$) ;
#218=AXIS2_PLACEMENT_3D('Circle Axis2P3D',#216,#217,$) ;
#237=AXIS2_PLACEMENT_3D('Circle Axis2P3D',#235,#236,$) ;
#242=AXIS2_PLACEMENT_3D('Circle Axis2P3D',#240,#241,$) ;
#255=AXIS2_PLACEMENT_3D('Plane Axis2P3D',#252,#253,#254) ;
#269=AXIS2_PLACEMENT_3D('Plane Axis2P3D',#266,#267,#268) ;
#286=AXIS2_PLACEMENT_3D('Absolute Axis System',#283,#284,#285) ;
#40=PRODUCT_DEFINITION_SHAPE(' ',' ',#14) ;
#31=APPROVAL_PERSON_ORGANIZATION(#25,#21,#19) ;
#25=PERSON_AND_ORGANIZATION(#22,#23) ;
#22=PERSON(' ',' ',' ',$,$,$) ;
#23=ORGANIZATION(' ',' ',' ') ;
#21=APPROVAL(#20,' ') ;
#20=APPROVAL_STATUS('not_yet_approved') ;
#19=APPROVAL_ROLE('APPROVER') ;
#13=DATE_AND_TIME(#11,#12) ;
#12=LOCAL_TIME(23,12,36.,#10) ;
#10=COORDINATED_UNIVERSAL_TIME_OFFSET(0,0,.AHEAD.) ;
#86=ORIENTED_EDGE('',*,*,#65,.F.) ;
#87=ORIENTED_EDGE('',*,*,#72,.T.) ;
#88=ORIENTED_EDGE('',*,*,#79,.T.) ;
#89=ORIENTED_EDGE('',*,*,#84,.F.) ;
#103=ORIENTED_EDGE('',*,*,#96,.F.) ;
#104=ORIENTED_EDGE('',*,*,#84,.T.) ;
#105=ORIENTED_EDGE('',*,*,#101,.T.) ;
#106=ORIENTED_EDGE('',*,*,#72,.F.) ;
#134=ORIENTED_EDGE('',*,*,#79,.F.) ;
#135=ORIENTED_EDGE('',*,*,#120,.T.) ;
#136=ORIENTED_EDGE('',*,*,#127,.T.) ;
#137=ORIENTED_EDGE('',*,*,#132,.F.) ;
#146=ORIENTED_EDGE('',*,*,#101,.F.) ;
#147=ORIENTED_EDGE('',*,*,#132,.T.) ;
#148=ORIENTED_EDGE('',*,*,#144,.T.) ;
#149=ORIENTED_EDGE('',*,*,#120,.F.) ;
#177=ORIENTED_EDGE('',*,*,#127,.F.) ;
#178=ORIENTED_EDGE('',*,*,#163,.T.) ;
#179=ORIENTED_EDGE('',*,*,#170,.T.) ;
#180=ORIENTED_EDGE('',*,*,#175,.F.) ;
#189=ORIENTED_EDGE('',*,*,#144,.F.) ;
#190=ORIENTED_EDGE('',*,*,#175,.T.) ;
#191=ORIENTED_EDGE('',*,*,#187,.T.) ;
#192=ORIENTED_EDGE('',*,*,#163,.F.) ;
#229=ORIENTED_EDGE('',*,*,#208,.F.) ;
#230=ORIENTED_EDGE('',*,*,#215,.T.) ;
#231=ORIENTED_EDGE('',*,*,#222,.T.) ;
#232=ORIENTED_EDGE('',*,*,#227,.F.) ;
#246=ORIENTED_EDGE('',*,*,#239,.F.) ;
#247=ORIENTED_EDGE('',*,*,#227,.T.) ;
#248=ORIENTED_EDGE('',*,*,#244,.T.) ;
#249=ORIENTED_EDGE('',*,*,#215,.F.) ;
#258=ORIENTED_EDGE('',*,*,#222,.F.) ;
#259=ORIENTED_EDGE('',*,*,#244,.F.) ;
#262=ORIENTED_EDGE('',*,*,#96,.T.) ;
#263=ORIENTED_EDGE('',*,*,#65,.T.) ;
#272=ORIENTED_EDGE('',*,*,#239,.T.) ;
#273=ORIENTED_EDGE('',*,*,#208,.T.) ;
#276=ORIENTED_EDGE('',*,*,#170,.F.) ;
#277=ORIENTED_EDGE('',*,*,#187,.F.) ;
#264=FACE_BOUND('',#261,.T.) ;
#278=FACE_BOUND('',#275,.T.) ;
#51=CLOSED_SHELL('Closed Shell',(#91,#108,#139,#151,#182,#194,#234,#251,#265,#279)) ;
#68=VECTOR('Line Direction',#67,1.) ;
#82=VECTOR('Line Direction',#81,1.) ;
#116=VECTOR('Line Direction',#115,1.) ;
#130=VECTOR('Line Direction',#129,1.) ;
#159=VECTOR('Line Direction',#158,1.) ;
#173=VECTOR('Line Direction',#172,1.) ;
#211=VECTOR('Line Direction',#210,1.) ;
#225=VECTOR('Line Direction',#224,1.) ;
#281=ADVANCED_BREP_SHAPE_REPRESENTATION('NONE',(#280),#46) ;
#49=SHAPE_REPRESENTATION(' ',(#48),#46) ;
#91=ADVANCED_FACE('PartBody',(#90),#56,.F.) ;
#108=ADVANCED_FACE('PartBody',(#107),#56,.F.) ;
#139=ADVANCED_FACE('PartBody',(#138),#113,.F.) ;
#151=ADVANCED_FACE('PartBody',(#150),#113,.F.) ;
#182=ADVANCED_FACE('PartBody',(#181),#156,.F.) ;
#194=ADVANCED_FACE('PartBody',(#193),#156,.F.) ;
#234=ADVANCED_FACE('PartBody',(#233),#199,.T.) ;
#251=ADVANCED_FACE('PartBody',(#250),#199,.T.) ;
#265=ADVANCED_FACE('PartBody',(#260,#264),#256,.F.) ;
#279=ADVANCED_FACE('PartBody',(#274,#278),#270,.T.) ;
#4=APPLICATION_PROTOCOL_DEFINITION('international standard','config_control_design',1994,#1) ;
#32=APPROVAL_DATE_TIME(#13,#21) ;
#280=MANIFOLD_SOLID_BREP('PartBody',#51) ;
#11=CALENDAR_DATE(2020,30,1) ;
#30=CC_DESIGN_APPROVAL(#21,(#16,#6,#14)) ;
#18=CC_DESIGN_DATE_AND_TIME_ASSIGNMENT(#13,#17,(#16)) ;
#29=CC_DESIGN_DATE_AND_TIME_ASSIGNMENT(#13,#28,(#14)) ;
#17=DATE_TIME_ROLE('classification_date') ;
#28=DATE_TIME_ROLE('creation_date') ;
#27=CC_DESIGN_PERSON_AND_ORGANIZATION_ASSIGNMENT(#25,#26,(#16)) ;
#33=CC_DESIGN_PERSON_AND_ORGANIZATION_ASSIGNMENT(#25,#34,(#6)) ;
#35=CC_DESIGN_PERSON_AND_ORGANIZATION_ASSIGNMENT(#25,#36,(#6,#14)) ;
#37=CC_DESIGN_PERSON_AND_ORGANIZATION_ASSIGNMENT(#25,#38,(#5)) ;
#26=PERSON_AND_ORGANIZATION_ROLE('classification_officer') ;
#34=PERSON_AND_ORGANIZATION_ROLE('design_supplier') ;
#36=PERSON_AND_ORGANIZATION_ROLE('creator') ;
#38=PERSON_AND_ORGANIZATION_ROLE('design_owner') ;
#39=CC_DESIGN_SECURITY_CLASSIFICATION(#16,(#6)) ;
#60=CIRCLE('generated circle',#59,8.1) ;
#76=CIRCLE('generated circle',#75,7.6) ;
#95=CIRCLE('generated circle',#94,8.1) ;
#100=CIRCLE('generated circle',#99,7.6) ;
#124=CIRCLE('generated circle',#123,7.6) ;
#143=CIRCLE('generated circle',#142,7.6) ;
#167=CIRCLE('generated circle',#166,8.1) ;
#186=CIRCLE('generated circle',#185,8.1) ;
#203=CIRCLE('generated circle',#202,9.5) ;
#219=CIRCLE('generated circle',#218,9.5) ;
#238=CIRCLE('generated circle',#237,9.5) ;
#243=CIRCLE('generated circle',#242,9.5) ;
#56=CONICAL_SURFACE('Cone',#55,7.6,0.785398163397) ;
#156=CONICAL_SURFACE('Cone',#155,7.6,0.785398163397) ;
#282=SHAPE_REPRESENTATION_RELATIONSHIP(' ',' ',#49,#281) ;
#113=CYLINDRICAL_SURFACE('generated cylinder',#112,7.6) ;
#199=CYLINDRICAL_SURFACE('generated cylinder',#198,9.5) ;
#3=DESIGN_CONTEXT(' ',#1,'design') ;
#65=EDGE_CURVE('',#62,#64,#60,.F.) ;
#72=EDGE_CURVE('',#62,#71,#69,.F.) ;
#79=EDGE_CURVE('',#71,#78,#76,.F.) ;
#84=EDGE_CURVE('',#64,#78,#83,.F.) ;
#96=EDGE_CURVE('',#64,#62,#95,.F.) ;
#101=EDGE_CURVE('',#78,#71,#100,.F.) ;
#120=EDGE_CURVE('',#71,#119,#117,.T.) ;
#127=EDGE_CURVE('',#119,#126,#124,.T.) ;
#132=EDGE_CURVE('',#78,#126,#131,.T.) ;
#144=EDGE_CURVE('',#126,#119,#143,.T.) ;
#163=EDGE_CURVE('',#119,#162,#160,.T.) ;
#170=EDGE_CURVE('',#162,#169,#167,.T.) ;
#175=EDGE_CURVE('',#126,#169,#174,.T.) ;
#187=EDGE_CURVE('',#169,#162,#186,.T.) ;
#208=EDGE_CURVE('',#205,#207,#203,.T.) ;
#215=EDGE_CURVE('',#205,#214,#212,.F.) ;
#222=EDGE_CURVE('',#214,#221,#219,.T.) ;
#227=EDGE_CURVE('',#207,#221,#226,.F.) ;
#239=EDGE_CURVE('',#207,#205,#238,.T.) ;
#244=EDGE_CURVE('',#221,#214,#243,.T.) ;
#85=EDGE_LOOP('',(#86,#87,#88,#89)) ;
#102=EDGE_LOOP('',(#103,#104,#105,#106)) ;
#133=EDGE_LOOP('',(#134,#135,#136,#137)) ;
#145=EDGE_LOOP('',(#146,#147,#148,#149)) ;
#176=EDGE_LOOP('',(#177,#178,#179,#180)) ;
#188=EDGE_LOOP('',(#189,#190,#191,#192)) ;
#228=EDGE_LOOP('',(#229,#230,#231,#232)) ;
#245=EDGE_LOOP('',(#246,#247,#248,#249)) ;
#257=EDGE_LOOP('',(#258,#259)) ;
#261=EDGE_LOOP('',(#262,#263)) ;
#271=EDGE_LOOP('',(#272,#273)) ;
#275=EDGE_LOOP('',(#276,#277)) ;
#90=FACE_OUTER_BOUND('',#85,.T.) ;
#107=FACE_OUTER_BOUND('',#102,.T.) ;
#138=FACE_OUTER_BOUND('',#133,.T.) ;
#150=FACE_OUTER_BOUND('',#145,.T.) ;
#181=FACE_OUTER_BOUND('',#176,.T.) ;
#193=FACE_OUTER_BOUND('',#188,.T.) ;
#233=FACE_OUTER_BOUND('',#228,.T.) ;
#250=FACE_OUTER_BOUND('',#245,.T.) ;
#260=FACE_OUTER_BOUND('',#257,.T.) ;
#274=FACE_OUTER_BOUND('',#271,.T.) ;
#45=UNCERTAINTY_MEASURE_WITH_UNIT(LENGTH_MEASURE(0.005),#41,'distance_accuracy_value','CONFUSED CURVE UNCERTAINTY') ;
#69=LINE('Line',#66,#68) ;
#83=LINE('Line',#80,#82) ;
#117=LINE('Line',#114,#116) ;
#131=LINE('Line',#128,#130) ;
#160=LINE('Line',#157,#159) ;
#174=LINE('Line',#171,#173) ;
#212=LINE('Line',#209,#211) ;
#226=LINE('Line',#223,#225) ;
#2=MECHANICAL_CONTEXT(' ',#1,'mechanical') ;
#24=PERSONAL_ADDRESS(' ',' ',' ',' ',' ',' ',' ',' ',' ',' ',' ',' ',(#22),' ') ;
#256=PLANE('',#255) ;
#270=PLANE('',#269) ;
#43=PLANE_ANGLE_MEASURE_WITH_UNIT(PLANE_ANGLE_MEASURE(0.0174532925199),#42) ;
#7=PRODUCT_CATEGORY('part',$) ;
#9=PRODUCT_CATEGORY_RELATIONSHIP(' ',' ',#7,#8) ;
#6=PRODUCT_DEFINITION_FORMATION_WITH_SPECIFIED_SOURCE('',' ',#5,.NOT_KNOWN.) ;
#8=PRODUCT_RELATED_PRODUCT_CATEGORY('detail',$,(#5)) ;
#50=SHAPE_DEFINITION_REPRESENTATION(#40,#49) ;
#62=VERTEX_POINT('',#61) ;
#64=VERTEX_POINT('',#63) ;
#71=VERTEX_POINT('',#70) ;
#78=VERTEX_POINT('',#77) ;
#119=VERTEX_POINT('',#118) ;
#126=VERTEX_POINT('',#125) ;
#162=VERTEX_POINT('',#161) ;
#169=VERTEX_POINT('',#168) ;
#205=VERTEX_POINT('',#204) ;
#207=VERTEX_POINT('',#206) ;
#214=VERTEX_POINT('',#213) ;
#221=VERTEX_POINT('',#220) ;
#41=(LENGTH_UNIT()NAMED_UNIT(*)SI_UNIT(.MILLI.,.METRE.)) ;
#42=(NAMED_UNIT(*)PLANE_ANGLE_UNIT()SI_UNIT($,.RADIAN.)) ;
#44=(NAMED_UNIT(*)SI_UNIT($,.STERADIAN.)SOLID_ANGLE_UNIT()) ;
#46=(GEOMETRIC_REPRESENTATION_CONTEXT(3)GLOBAL_UNCERTAINTY_ASSIGNED_CONTEXT((#45))GLOBAL_UNIT_ASSIGNED_CONTEXT((#41,#42,#44))REPRESENTATION_CONTEXT(' ',' ')) ;
ENDSEC;
END-ISO-10303-21;
