ISO-10303-21;
HEADER;
FILE_DESCRIPTION( ( 'STEP AP203' ), '1' );
FILE_NAME( 'C:/Users/NICOLAS/Desktop/NICOLAS/PROJET FUSEE 1000M/DIVERGENT TUYERE.step', '  ', ( '  ' ), ( '  ' ), 'PSStep 10.0', '  ', '  ' );
FILE_SCHEMA( ( 'CONFIG_CONTROL_DESIGN' ) );
ENDSEC;
DATA;
#1 = DESIGN_CONTEXT( '', #27, 'design' );
#2 = APPLICATION_PROTOCOL_DEFINITION( 'INTERNATIONAL STANDARD', 'config_control_design', 1994, #27 );
#3 = PRODUCT_CATEGORY_RELATIONSHIP( 'NONE', 'NONE', #28, #29 );
#4 = DATE_AND_TIME( #30, #31 );
#5 = DATE_TIME_ROLE( 'creation_date' );
#6 = DATE_TIME_ROLE( 'classification_date' );
#7 = PERSON_AND_ORGANIZATION_ROLE( 'creator' );
#8 = PERSON_AND_ORGANIZATION_ROLE( 'design_supplier' );
#9 = PERSON_AND_ORGANIZATION_ROLE( 'classification_officer' );
#10 = PERSON_AND_ORGANIZATION_ROLE( 'design_owner' );
#11 = APPROVAL_PERSON_ORGANIZATION( #32, #33, #34 );
#12 = APPROVAL_DATE_TIME( #4, #33 );
#13 = CC_DESIGN_APPROVAL( #33, ( #35, #36, #37 ) );
#14 = CC_DESIGN_DATE_AND_TIME_ASSIGNMENT( #4, #5, ( #37 ) );
#15 = CC_DESIGN_DATE_AND_TIME_ASSIGNMENT( #4, #6, ( #35 ) );
#16 = CC_DESIGN_PERSON_AND_ORGANIZATION_ASSIGNMENT( #32, #10, ( #38 ) );
#17 = CC_DESIGN_PERSON_AND_ORGANIZATION_ASSIGNMENT( #32, #7, ( #37 ) );
#18 = CC_DESIGN_PERSON_AND_ORGANIZATION_ASSIGNMENT( #32, #7, ( #36 ) );
#19 = CC_DESIGN_PERSON_AND_ORGANIZATION_ASSIGNMENT( #32, #8, ( #36 ) );
#20 = CC_DESIGN_SECURITY_CLASSIFICATION( #35, ( #36 ) );
#21 = CC_DESIGN_PERSON_AND_ORGANIZATION_ASSIGNMENT( #32, #9, ( #35 ) );
#22 = SHAPE_DEFINITION_REPRESENTATION( #39, #40 );
#23 =  ( GEOMETRIC_REPRESENTATION_CONTEXT( 3 )GLOBAL_UNCERTAINTY_ASSIGNED_CONTEXT( ( #43 ) )GLOBAL_UNIT_ASSIGNED_CONTEXT( ( #45, #46, #47 ) )REPRESENTATION_CONTEXT( 'NONE', 'WORKSPACE' ) );
#27 = APPLICATION_CONTEXT( 'CONFIGURATION CONTROLLED 3D DESIGNS OF MECHANICAL PARTS AND ASSEMBLIES' );
#28 = PRODUCT_CATEGORY( 'part', 'NONE' );
#29 = PRODUCT_RELATED_PRODUCT_CATEGORY( 'detail', ' ', ( #38 ) );
#30 = CALENDAR_DATE( 2020, 28, 5 );
#31 = LOCAL_TIME( 10, 31, 50.0000000000000, #49 );
#32 = PERSON_AND_ORGANIZATION( #50, #51 );
#33 = APPROVAL( #52, 'SOLID MODEL' );
#34 = APPROVAL_ROLE( 'APPROVED' );
#35 = SECURITY_CLASSIFICATION( '', '', #53 );
#36 = PRODUCT_DEFINITION_FORMATION_WITH_SPECIFIED_SOURCE( ' ', 'NONE', #38, .NOT_KNOWN. );
#37 = PRODUCT_DEFINITION( 'NONE', 'NONE', #36, #1 );
#38 = PRODUCT( '1', '1', 'PART-1-DESC', ( #54 ) );
#39 = PRODUCT_DEFINITION_SHAPE( 'NONE', 'NONE', #37 );
#40 = ADVANCED_BREP_SHAPE_REPRESENTATION( '1', ( #55, #56 ), #23 );
#43 = UNCERTAINTY_MEASURE_WITH_UNIT( LENGTH_MEASURE( 0.00100000000000000 ), #45, '', '' );
#45 =  ( CONVERSION_BASED_UNIT( 'MILLIMETRE', #59 )LENGTH_UNIT(  )NAMED_UNIT( #62 ) );
#46 =  ( NAMED_UNIT( #64 )PLANE_ANGLE_UNIT(  )SI_UNIT( $, .RADIAN. ) );
#47 =  ( NAMED_UNIT( #64 )SI_UNIT( $, .STERADIAN. )SOLID_ANGLE_UNIT(  ) );
#49 = COORDINATED_UNIVERSAL_TIME_OFFSET( 1, 0, .AHEAD. );
#50 = PERSON( '', 'UNSPECIFIED', $, $, $, $ );
#51 = ORGANIZATION( 'UNSPECIFIED', 'UNSPECIFIED', 'UNSPECIFIED' );
#52 = APPROVAL_STATUS( 'approved' );
#53 = SECURITY_CLASSIFICATION_LEVEL( 'unclassified' );
#54 = MECHANICAL_CONTEXT( '', #27, 'mechanical' );
#55 = MANIFOLD_SOLID_BREP( '1', #70 );
#56 = AXIS2_PLACEMENT_3D( '', #71, #72, #73 );
#59 = LENGTH_MEASURE_WITH_UNIT( LENGTH_MEASURE( 1.00000000000000 ), #74 );
#62 = DIMENSIONAL_EXPONENTS( 1.00000000000000, 0.000000000000000, 0.000000000000000, 0.000000000000000, 0.000000000000000, 0.000000000000000, 0.000000000000000 );
#64 = DIMENSIONAL_EXPONENTS( 0.000000000000000, 0.000000000000000, 0.000000000000000, 0.000000000000000, 0.000000000000000, 0.000000000000000, 0.000000000000000 );
#70 = CLOSED_SHELL( '', ( #75, #76, #77, #78, #79, #80 ) );
#71 = CARTESIAN_POINT( '', ( 0.000000000000000, 0.000000000000000, 0.000000000000000 ) );
#72 = DIRECTION( '', ( 0.000000000000000, 0.000000000000000, 1.00000000000000 ) );
#73 = DIRECTION( '', ( 1.00000000000000, 0.000000000000000, 0.000000000000000 ) );
#74 =  ( LENGTH_UNIT(  )NAMED_UNIT( #62 )SI_UNIT( .MILLI., .METRE. ) );
#75 = ADVANCED_FACE( '', ( #82, #83 ), #84, .F. );
#76 = ADVANCED_FACE( '', ( #85, #86 ), #87, .F. );
#77 = ADVANCED_FACE( '', ( #88, #89 ), #90, .T. );
#78 = ADVANCED_FACE( '', ( #91, #92 ), #93, .T. );
#79 = ADVANCED_FACE( '', ( #94, #95 ), #96, .F. );
#80 = ADVANCED_FACE( '', ( #97, #98 ), #99, .F. );
#82 = FACE_BOUND( '', #100, .T. );
#83 = FACE_OUTER_BOUND( '', #101, .T. );
#84 = CONICAL_SURFACE( '', #102, 32.4014334929614, 0.276309096491343 );
#85 = FACE_BOUND( '', #103, .T. );
#86 = FACE_OUTER_BOUND( '', #104, .T. );
#87 = PLANE( '', #105 );
#88 = FACE_OUTER_BOUND( '', #106, .T. );
#89 = FACE_BOUND( '', #107, .T. );
#90 = CONICAL_SURFACE( '', #108, 14.9999999999841, 0.276309096491343 );
#91 = FACE_OUTER_BOUND( '', #109, .T. );
#92 = FACE_OUTER_BOUND( '', #110, .T. );
#93 = CYLINDRICAL_SURFACE( '', #111, 14.9999999999841 );
#94 = FACE_OUTER_BOUND( '', #112, .T. );
#95 = FACE_BOUND( '', #113, .T. );
#96 = PLANE( '', #114 );
#97 = FACE_OUTER_BOUND( '', #115, .T. );
#98 = FACE_OUTER_BOUND( '', #116, .T. );
#99 = CYLINDRICAL_SURFACE( '', #117, 10.0000000000000 );
#100 = EDGE_LOOP( '', ( #118 ) );
#101 = EDGE_LOOP( '', ( #119 ) );
#102 = AXIS2_PLACEMENT_3D( '', #120, #121, #122 );
#103 = EDGE_LOOP( '', ( #123 ) );
#104 = EDGE_LOOP( '', ( #124 ) );
#105 = AXIS2_PLACEMENT_3D( '', #125, #126, #127 );
#106 = EDGE_LOOP( '', ( #128 ) );
#107 = EDGE_LOOP( '', ( #129 ) );
#108 = AXIS2_PLACEMENT_3D( '', #130, #131, #132 );
#109 = EDGE_LOOP( '', ( #133 ) );
#110 = EDGE_LOOP( '', ( #134 ) );
#111 = AXIS2_PLACEMENT_3D( '', #135, #136, #137 );
#112 = EDGE_LOOP( '', ( #138 ) );
#113 = EDGE_LOOP( '', ( #139 ) );
#114 = AXIS2_PLACEMENT_3D( '', #140, #141, #142 );
#115 = EDGE_LOOP( '', ( #143 ) );
#116 = EDGE_LOOP( '', ( #144 ) );
#117 = AXIS2_PLACEMENT_3D( '', #145, #146, #147 );
#118 = ORIENTED_EDGE( '', *, *, #148, .F. );
#119 = ORIENTED_EDGE( '', *, *, #149, .T. );
#120 = CARTESIAN_POINT( '', ( 0.000000000000000, 0.000000000000000, -85.0000000000000 ) );
#121 = DIRECTION( '', ( -0.000000000000000, 0.000000000000000, -1.00000000000000 ) );
#122 = DIRECTION( '', ( -1.00000000000000, 0.000000000000000, 0.000000000000000 ) );
#123 = ORIENTED_EDGE( '', *, *, #149, .F. );
#124 = ORIENTED_EDGE( '', *, *, #150, .T. );
#125 = CARTESIAN_POINT( '', ( 35.0000000000000, 0.000000000000000, -85.0000000000000 ) );
#126 = DIRECTION( '', ( 0.000000000000000, -0.000000000000000, 1.00000000000000 ) );
#127 = DIRECTION( '', ( 1.00000000000000, 0.000000000000000, 0.000000000000000 ) );
#128 = ORIENTED_EDGE( '', *, *, #150, .F. );
#129 = ORIENTED_EDGE( '', *, *, #151, .T. );
#130 = CARTESIAN_POINT( '', ( 0.000000000000000, 0.000000000000000, -14.4687993740097 ) );
#131 = DIRECTION( '', ( -0.000000000000000, 0.000000000000000, -1.00000000000000 ) );
#132 = DIRECTION( '', ( -1.00000000000000, 0.000000000000000, 0.000000000000000 ) );
#133 = ORIENTED_EDGE( '', *, *, #151, .F. );
#134 = ORIENTED_EDGE( '', *, *, #152, .T. );
#135 = CARTESIAN_POINT( '', ( 0.000000000000000, 0.000000000000000, 752.000000000000 ) );
#136 = DIRECTION( '', ( -0.000000000000000, -0.000000000000000, 1.00000000000000 ) );
#137 = DIRECTION( '', ( -1.00000000000000, 0.000000000000000, 0.000000000000000 ) );
#138 = ORIENTED_EDGE( '', *, *, #152, .F. );
#139 = ORIENTED_EDGE( '', *, *, #153, .T. );
#140 = CARTESIAN_POINT( '', ( 10.0000000000000, 0.000000000000000, -5.00000000000000 ) );
#141 = DIRECTION( '', ( 0.000000000000000, 0.000000000000000, -1.00000000000000 ) );
#142 = DIRECTION( '', ( -1.00000000000000, 0.000000000000000, 0.000000000000000 ) );
#143 = ORIENTED_EDGE( '', *, *, #153, .F. );
#144 = ORIENTED_EDGE( '', *, *, #148, .T. );
#145 = CARTESIAN_POINT( '', ( 0.000000000000000, 0.000000000000000, 752.000000000000 ) );
#146 = DIRECTION( '', ( -0.000000000000000, -0.000000000000000, 1.00000000000000 ) );
#147 = DIRECTION( '', ( -1.00000000000000, 0.000000000000000, 0.000000000000000 ) );
#148 = EDGE_CURVE( '', #154, #154, #155, .T. );
#149 = EDGE_CURVE( '', #156, #156, #157, .T. );
#150 = EDGE_CURVE( '', #158, #158, #159, .T. );
#151 = EDGE_CURVE( '', #160, #160, #161, .T. );
#152 = EDGE_CURVE( '', #162, #162, #163, .T. );
#153 = EDGE_CURVE( '', #164, #164, #165, .T. );
#154 = VERTEX_POINT( '', #166 );
#155 = CIRCLE( '', #167, 10.0000000000000 );
#156 = VERTEX_POINT( '', #168 );
#157 = CIRCLE( '', #169, 32.4014334929614 );
#158 = VERTEX_POINT( '', #170 );
#159 = CIRCLE( '', #171, 35.0000000000000 );
#160 = VERTEX_POINT( '', #172 );
#161 = CIRCLE( '', #173, 14.9999999999841 );
#162 = VERTEX_POINT( '', #174 );
#163 = CIRCLE( '', #175, 14.9999999999841 );
#164 = VERTEX_POINT( '', #176 );
#165 = CIRCLE( '', #177, 10.0000000000000 );
#166 = CARTESIAN_POINT( '', ( -10.0000000000000, 0.000000000000000, -5.99999999997092 ) );
#167 = AXIS2_PLACEMENT_3D( '', #178, #179, #180 );
#168 = CARTESIAN_POINT( '', ( -32.4014334929614, 0.000000000000000, -85.0000000000000 ) );
#169 = AXIS2_PLACEMENT_3D( '', #181, #182, #183 );
#170 = CARTESIAN_POINT( '', ( -35.0000000000000, 0.000000000000000, -85.0000000000000 ) );
#171 = AXIS2_PLACEMENT_3D( '', #184, #185, #186 );
#172 = CARTESIAN_POINT( '', ( -14.9999999999841, 0.000000000000000, -14.4687993740097 ) );
#173 = AXIS2_PLACEMENT_3D( '', #187, #188, #189 );
#174 = CARTESIAN_POINT( '', ( -14.9999999999841, 0.000000000000000, -5.00000000000000 ) );
#175 = AXIS2_PLACEMENT_3D( '', #190, #191, #192 );
#176 = CARTESIAN_POINT( '', ( -10.0000000000000, 0.000000000000000, -5.00000000000000 ) );
#177 = AXIS2_PLACEMENT_3D( '', #193, #194, #195 );
#178 = CARTESIAN_POINT( '', ( 0.000000000000000, 0.000000000000000, -5.99999999997092 ) );
#179 = DIRECTION( '', ( 0.000000000000000, 0.000000000000000, -1.00000000000000 ) );
#180 = DIRECTION( '', ( -1.00000000000000, 0.000000000000000, 0.000000000000000 ) );
#181 = CARTESIAN_POINT( '', ( 0.000000000000000, 0.000000000000000, -85.0000000000000 ) );
#182 = DIRECTION( '', ( 0.000000000000000, 0.000000000000000, -1.00000000000000 ) );
#183 = DIRECTION( '', ( -1.00000000000000, 0.000000000000000, 0.000000000000000 ) );
#184 = CARTESIAN_POINT( '', ( 0.000000000000000, 0.000000000000000, -85.0000000000000 ) );
#185 = DIRECTION( '', ( 0.000000000000000, 0.000000000000000, -1.00000000000000 ) );
#186 = DIRECTION( '', ( -1.00000000000000, 0.000000000000000, 0.000000000000000 ) );
#187 = CARTESIAN_POINT( '', ( 0.000000000000000, 0.000000000000000, -14.4687993740097 ) );
#188 = DIRECTION( '', ( 0.000000000000000, 0.000000000000000, -1.00000000000000 ) );
#189 = DIRECTION( '', ( -1.00000000000000, 0.000000000000000, 0.000000000000000 ) );
#190 = CARTESIAN_POINT( '', ( 0.000000000000000, 0.000000000000000, -5.00000000000000 ) );
#191 = DIRECTION( '', ( 0.000000000000000, 0.000000000000000, -1.00000000000000 ) );
#192 = DIRECTION( '', ( -1.00000000000000, 0.000000000000000, 0.000000000000000 ) );
#193 = CARTESIAN_POINT( '', ( 0.000000000000000, 0.000000000000000, -5.00000000000000 ) );
#194 = DIRECTION( '', ( 0.000000000000000, 0.000000000000000, -1.00000000000000 ) );
#195 = DIRECTION( '', ( -1.00000000000000, 0.000000000000000, 0.000000000000000 ) );
ENDSEC;
END-ISO-10303-21;
