ISO-10303-21;
HEADER;
FILE_DESCRIPTION((''),'2;1');
FILE_NAME('MANCHON','2020-06-09T22:42:19',('i00202356'),(''),
'CREO PARAMETRIC BY PTC INC, 2019164','CREO PARAMETRIC BY PTC INC, 2019164','');
FILE_SCHEMA((
'AP242_MANAGED_MODEL_BASED_3D_ENGINEERING_MIM_LF { 1 0 10303 442 1 1 4 }'));
ENDSEC;
DATA;
#48=CARTESIAN_POINT('',(0.E0,0.E0,0.E0));
#49=DIRECTION('',(1.E0,0.E0,0.E0));
#50=DIRECTION('',(0.E0,1.E0,0.E0));
#51=AXIS2_PLACEMENT_3D('',#48,#49,#50);
#53=DIRECTION('',(1.E0,0.E0,0.E0));
#54=VECTOR('',#53,1.32E2);
#55=CARTESIAN_POINT('',(0.E0,6.05E0,0.E0));
#56=LINE('',#55,#54);
#57=DIRECTION('',(1.E0,0.E0,0.E0));
#58=VECTOR('',#57,1.32E2);
#59=CARTESIAN_POINT('',(0.E0,-6.05E0,0.E0));
#60=LINE('',#59,#58);
#61=CARTESIAN_POINT('',(0.E0,0.E0,0.E0));
#62=DIRECTION('',(-1.E0,0.E0,0.E0));
#63=DIRECTION('',(0.E0,1.E0,0.E0));
#64=AXIS2_PLACEMENT_3D('',#61,#62,#63);
#66=CARTESIAN_POINT('',(1.32E2,0.E0,0.E0));
#67=DIRECTION('',(-1.E0,0.E0,0.E0));
#68=DIRECTION('',(0.E0,1.E0,0.E0));
#69=AXIS2_PLACEMENT_3D('',#66,#67,#68);
#71=CARTESIAN_POINT('',(1.32E2,0.E0,0.E0));
#72=DIRECTION('',(1.E0,0.E0,0.E0));
#73=DIRECTION('',(0.E0,1.E0,0.E0));
#74=AXIS2_PLACEMENT_3D('',#71,#72,#73);
#76=CARTESIAN_POINT('',(1.32E2,0.E0,0.E0));
#77=DIRECTION('',(1.E0,0.E0,0.E0));
#78=DIRECTION('',(0.E0,1.E0,0.E0));
#79=AXIS2_PLACEMENT_3D('',#76,#77,#78);
#81=DIRECTION('',(-1.E0,0.E0,0.E0));
#82=VECTOR('',#81,1.31E2);
#83=CARTESIAN_POINT('',(1.32E2,7.75E0,0.E0));
#84=LINE('',#83,#82);
#85=DIRECTION('',(-1.E0,0.E0,0.E0));
#86=VECTOR('',#85,1.31E2);
#87=CARTESIAN_POINT('',(1.32E2,-7.75E0,0.E0));
#88=LINE('',#87,#86);
#89=CARTESIAN_POINT('',(1.32E2,0.E0,0.E0));
#90=DIRECTION('',(-1.E0,0.E0,0.E0));
#91=DIRECTION('',(0.E0,1.E0,0.E0));
#92=AXIS2_PLACEMENT_3D('',#89,#90,#91);
#94=CARTESIAN_POINT('',(1.E0,0.E0,0.E0));
#95=DIRECTION('',(-1.E0,0.E0,0.E0));
#96=DIRECTION('',(0.E0,1.E0,0.E0));
#97=AXIS2_PLACEMENT_3D('',#94,#95,#96);
#99=CARTESIAN_POINT('',(1.E0,0.E0,0.E0));
#100=DIRECTION('',(1.E0,0.E0,0.E0));
#101=DIRECTION('',(0.E0,1.E0,0.E0));
#102=AXIS2_PLACEMENT_3D('',#99,#100,#101);
#104=CARTESIAN_POINT('',(1.E0,0.E0,0.E0));
#105=DIRECTION('',(1.E0,0.E0,0.E0));
#106=DIRECTION('',(0.E0,1.E0,0.E0));
#107=AXIS2_PLACEMENT_3D('',#104,#105,#106);
#109=DIRECTION('',(-1.E0,0.E0,0.E0));
#110=VECTOR('',#109,1.E0);
#111=CARTESIAN_POINT('',(1.E0,1.25E1,0.E0));
#112=LINE('',#111,#110);
#113=DIRECTION('',(-1.E0,0.E0,0.E0));
#114=VECTOR('',#113,1.E0);
#115=CARTESIAN_POINT('',(1.E0,-1.25E1,0.E0));
#116=LINE('',#115,#114);
#117=CARTESIAN_POINT('',(1.E0,0.E0,0.E0));
#118=DIRECTION('',(-1.E0,0.E0,0.E0));
#119=DIRECTION('',(0.E0,1.E0,0.E0));
#120=AXIS2_PLACEMENT_3D('',#117,#118,#119);
#122=CARTESIAN_POINT('',(0.E0,0.E0,0.E0));
#123=DIRECTION('',(-1.E0,0.E0,0.E0));
#124=DIRECTION('',(0.E0,1.E0,0.E0));
#125=AXIS2_PLACEMENT_3D('',#122,#123,#124);
#127=CARTESIAN_POINT('',(0.E0,0.E0,0.E0));
#128=DIRECTION('',(1.E0,0.E0,0.E0));
#129=DIRECTION('',(0.E0,1.E0,0.E0));
#130=AXIS2_PLACEMENT_3D('',#127,#128,#129);
#132=CARTESIAN_POINT('',(0.E0,6.05E0,0.E0));
#133=CARTESIAN_POINT('',(1.32E2,6.05E0,0.E0));
#134=VERTEX_POINT('',#132);
#135=VERTEX_POINT('',#133);
#136=CARTESIAN_POINT('',(1.32E2,7.75E0,0.E0));
#137=CARTESIAN_POINT('',(1.E0,7.75E0,0.E0));
#138=VERTEX_POINT('',#136);
#139=VERTEX_POINT('',#137);
#140=CARTESIAN_POINT('',(1.E0,1.25E1,0.E0));
#141=CARTESIAN_POINT('',(0.E0,1.25E1,0.E0));
#142=VERTEX_POINT('',#140);
#143=VERTEX_POINT('',#141);
#144=CARTESIAN_POINT('',(0.E0,-6.05E0,0.E0));
#145=CARTESIAN_POINT('',(1.32E2,-6.05E0,0.E0));
#146=VERTEX_POINT('',#144);
#147=VERTEX_POINT('',#145);
#148=CARTESIAN_POINT('',(1.32E2,-7.75E0,0.E0));
#149=CARTESIAN_POINT('',(1.E0,-7.75E0,0.E0));
#150=VERTEX_POINT('',#148);
#151=VERTEX_POINT('',#149);
#152=CARTESIAN_POINT('',(1.E0,-1.25E1,0.E0));
#153=CARTESIAN_POINT('',(0.E0,-1.25E1,0.E0));
#154=VERTEX_POINT('',#152);
#155=VERTEX_POINT('',#153);
#156=CARTESIAN_POINT('',(-6.6E0,0.E0,0.E0));
#157=DIRECTION('',(1.E0,0.E0,0.E0));
#158=DIRECTION('',(0.E0,-1.E0,0.E0));
#159=AXIS2_PLACEMENT_3D('',#156,#157,#158);
#160=CYLINDRICAL_SURFACE('',#159,6.05E0);
#162=ORIENTED_EDGE('',*,*,#161,.F.);
#164=ORIENTED_EDGE('',*,*,#163,.T.);
#166=ORIENTED_EDGE('',*,*,#165,.T.);
#168=ORIENTED_EDGE('',*,*,#167,.F.);
#169=EDGE_LOOP('',(#162,#164,#166,#168));
#170=FACE_OUTER_BOUND('',#169,.F.);
#172=CARTESIAN_POINT('',(-6.6E0,0.E0,0.E0));
#173=DIRECTION('',(1.E0,0.E0,0.E0));
#174=DIRECTION('',(0.E0,-1.E0,0.E0));
#175=AXIS2_PLACEMENT_3D('',#172,#173,#174);
#176=CYLINDRICAL_SURFACE('',#175,6.05E0);
#177=ORIENTED_EDGE('',*,*,#161,.T.);
#179=ORIENTED_EDGE('',*,*,#178,.T.);
#180=ORIENTED_EDGE('',*,*,#165,.F.);
#182=ORIENTED_EDGE('',*,*,#181,.F.);
#183=EDGE_LOOP('',(#177,#179,#180,#182));
#184=FACE_OUTER_BOUND('',#183,.F.);
#186=CARTESIAN_POINT('',(1.32E2,0.E0,0.E0));
#187=DIRECTION('',(1.E0,0.E0,0.E0));
#188=DIRECTION('',(0.E0,-1.E0,0.E0));
#189=AXIS2_PLACEMENT_3D('',#186,#187,#188);
#190=PLANE('',#189);
#192=ORIENTED_EDGE('',*,*,#191,.F.);
#194=ORIENTED_EDGE('',*,*,#193,.T.);
#195=EDGE_LOOP('',(#192,#194));
#196=FACE_OUTER_BOUND('',#195,.F.);
#197=ORIENTED_EDGE('',*,*,#178,.F.);
#198=ORIENTED_EDGE('',*,*,#167,.T.);
#199=EDGE_LOOP('',(#197,#198));
#200=FACE_BOUND('',#199,.F.);
#202=CARTESIAN_POINT('',(-6.6E0,0.E0,0.E0));
#203=DIRECTION('',(1.E0,0.E0,0.E0));
#204=DIRECTION('',(0.E0,-1.E0,0.E0));
#205=AXIS2_PLACEMENT_3D('',#202,#203,#204);
#206=CYLINDRICAL_SURFACE('',#205,7.75E0);
#208=ORIENTED_EDGE('',*,*,#207,.F.);
#209=ORIENTED_EDGE('',*,*,#191,.T.);
#211=ORIENTED_EDGE('',*,*,#210,.T.);
#213=ORIENTED_EDGE('',*,*,#212,.F.);
#214=EDGE_LOOP('',(#208,#209,#211,#213));
#215=FACE_OUTER_BOUND('',#214,.F.);
#217=CARTESIAN_POINT('',(-6.6E0,0.E0,0.E0));
#218=DIRECTION('',(1.E0,0.E0,0.E0));
#219=DIRECTION('',(0.E0,-1.E0,0.E0));
#220=AXIS2_PLACEMENT_3D('',#217,#218,#219);
#221=CYLINDRICAL_SURFACE('',#220,7.75E0);
#222=ORIENTED_EDGE('',*,*,#207,.T.);
#224=ORIENTED_EDGE('',*,*,#223,.T.);
#225=ORIENTED_EDGE('',*,*,#210,.F.);
#226=ORIENTED_EDGE('',*,*,#193,.F.);
#227=EDGE_LOOP('',(#222,#224,#225,#226));
#228=FACE_OUTER_BOUND('',#227,.F.);
#230=CARTESIAN_POINT('',(1.E0,0.E0,0.E0));
#231=DIRECTION('',(1.E0,0.E0,0.E0));
#232=DIRECTION('',(0.E0,-1.E0,0.E0));
#233=AXIS2_PLACEMENT_3D('',#230,#231,#232);
#234=PLANE('',#233);
#236=ORIENTED_EDGE('',*,*,#235,.F.);
#238=ORIENTED_EDGE('',*,*,#237,.T.);
#239=EDGE_LOOP('',(#236,#238));
#240=FACE_OUTER_BOUND('',#239,.F.);
#241=ORIENTED_EDGE('',*,*,#223,.F.);
#242=ORIENTED_EDGE('',*,*,#212,.T.);
#243=EDGE_LOOP('',(#241,#242));
#244=FACE_BOUND('',#243,.F.);
#246=CARTESIAN_POINT('',(-6.6E0,0.E0,0.E0));
#247=DIRECTION('',(1.E0,0.E0,0.E0));
#248=DIRECTION('',(0.E0,-1.E0,0.E0));
#249=AXIS2_PLACEMENT_3D('',#246,#247,#248);
#250=CYLINDRICAL_SURFACE('',#249,1.25E1);
#252=ORIENTED_EDGE('',*,*,#251,.F.);
#253=ORIENTED_EDGE('',*,*,#235,.T.);
#255=ORIENTED_EDGE('',*,*,#254,.T.);
#257=ORIENTED_EDGE('',*,*,#256,.F.);
#258=EDGE_LOOP('',(#252,#253,#255,#257));
#259=FACE_OUTER_BOUND('',#258,.F.);
#261=CARTESIAN_POINT('',(-6.6E0,0.E0,0.E0));
#262=DIRECTION('',(1.E0,0.E0,0.E0));
#263=DIRECTION('',(0.E0,-1.E0,0.E0));
#264=AXIS2_PLACEMENT_3D('',#261,#262,#263);
#265=CYLINDRICAL_SURFACE('',#264,1.25E1);
#266=ORIENTED_EDGE('',*,*,#251,.T.);
#268=ORIENTED_EDGE('',*,*,#267,.T.);
#269=ORIENTED_EDGE('',*,*,#254,.F.);
#270=ORIENTED_EDGE('',*,*,#237,.F.);
#271=EDGE_LOOP('',(#266,#268,#269,#270));
#272=FACE_OUTER_BOUND('',#271,.F.);
#274=CARTESIAN_POINT('',(0.E0,0.E0,0.E0));
#275=DIRECTION('',(1.E0,0.E0,0.E0));
#276=DIRECTION('',(0.E0,-1.E0,0.E0));
#277=AXIS2_PLACEMENT_3D('',#274,#275,#276);
#278=PLANE('',#277);
#279=ORIENTED_EDGE('',*,*,#267,.F.);
#280=ORIENTED_EDGE('',*,*,#256,.T.);
#281=EDGE_LOOP('',(#279,#280));
#282=FACE_OUTER_BOUND('',#281,.F.);
#283=ORIENTED_EDGE('',*,*,#163,.F.);
#284=ORIENTED_EDGE('',*,*,#181,.T.);
#285=EDGE_LOOP('',(#283,#284));
#286=FACE_BOUND('',#285,.F.);
#288=CLOSED_SHELL('',(#171,#185,#201,#216,#229,#245,#260,#273,#287));
#289=MANIFOLD_SOLID_BREP('',#288);
#290=PRESENTATION_LAYER_ASSIGNMENT('SOLIDGEOM','',(#289));
#293=PLANE_ANGLE_MEASURE_WITH_UNIT(PLANE_ANGLE_MEASURE(1.745329251994E-2),#292);
#294=(CONVERSION_BASED_UNIT('DEGREE',#293)NAMED_UNIT(*)PLANE_ANGLE_UNIT());
#296=UNCERTAINTY_MEASURE_WITH_UNIT(LENGTH_MEASURE(1.138728155964E-2),#291,
'closure',
'Maximum model space distance between geometric entities at asserted connectivities');
#299=APPLICATION_CONTEXT('automotive design');
#300=APPLICATION_PROTOCOL_DEFINITION('international standard',
'config_control_design',1994,#299);
#301=PRODUCT_DEFINITION_CONTEXT('',#299,'design');
#302=PRODUCT_CONTEXT('',#299,'mechanical');
#303=PRODUCT('MANCHON','MANCHON','NOT SPECIFIED',(#302));
#304=PRODUCT_DEFINITION_FORMATION_WITH_SPECIFIED_SOURCE('1','LAST_VERSION',#303,
.MADE.);
#312=DERIVED_UNIT_ELEMENT(#311,2.E0);
#313=AREA_UNIT((#312));
#314=MEASURE_REPRESENTATION_ITEM('surface area measure',AREA_MEASURE(
1.222706289981E4),#313);
#319=DERIVED_UNIT_ELEMENT(#318,3.E0);
#320=VOLUME_UNIT((#319));
#321=MEASURE_REPRESENTATION_ITEM('volume measure',VOLUME_MEASURE(
1.003081474559E4),#320);
#325=CARTESIAN_POINT('centre point',(6.402678867145E1,0.E0,0.E0));
#330=DERIVED_UNIT_ELEMENT(#329,2.E0);
#331=AREA_UNIT((#330));
#332=MEASURE_REPRESENTATION_ITEM('surface area measure',AREA_MEASURE(
1.222706289981E4),#331);
#337=DERIVED_UNIT_ELEMENT(#336,3.E0);
#338=VOLUME_UNIT((#337));
#339=MEASURE_REPRESENTATION_ITEM('volume measure',VOLUME_MEASURE(
1.003081474559E4),#338);
#343=CARTESIAN_POINT('centre point',(6.402678867145E1,0.E0,0.E0));
#1=DRAUGHTING_PRE_DEFINED_COLOUR('black');
#2=COLOUR_RGB('',0.E0,0.E0,6.6E-1);
#3=DRAUGHTING_PRE_DEFINED_COLOUR('blue');
#4=COLOUR_RGB('',0.E0,3.3E-1,0.E0);
#5=COLOUR_RGB('',0.E0,4.5E-1,0.E0);
#6=COLOUR_RGB('',0.E0,6.E-1,0.E0);
#7=COLOUR_RGB('',0.E0,8.E-1,0.E0);
#8=DRAUGHTING_PRE_DEFINED_COLOUR('green');
#9=COLOUR_RGB('',6.7E-2,6.7E-2,6.7E-2);
#10=COLOUR_RGB('',1.01E-1,1.98E-1,9.52E-1);
#11=COLOUR_RGB('',1.06E-1,8.16E-1,2.08E-1);
#12=COLOUR_RGB('',1.60784E-1,1.92157E-1,2.E-1);
#13=COLOUR_RGB('',2.E-1,4.E-1,1.E0);
#14=COLOUR_RGB('',2.E-1,8.E-1,1.E0);
#15=COLOUR_RGB('',2.31373E-1,5.13725E-1,7.41176E-1);
#16=COLOUR_RGB('',2.5E-1,2.5E-1,2.5E-1);
#17=COLOUR_RGB('',3.14E-1,7.4E-2,0.E0);
#18=COLOUR_RGB('',4.55991E-1,3.4499E-1,1.E0);
#19=COLOUR_RGB('',4.63E-1,4.43E-1,4.94E-1);
#20=COLOUR_RGB('',5.E-1,5.E-1,5.E-1);
#21=COLOUR_RGB('',5.22E-1,4.94E-1,4.86E-1);
#22=COLOUR_RGB('',6.08E-1,2.3E-2,7.73E-1);
#23=COLOUR_RGB('',6.35294E-1,6.86275E-1,7.4902E-1);
#24=COLOUR_RGB('',6.47E-1,6.47E-1,6.47E-1);
#25=COLOUR_RGB('',7.57E-1,0.E0,0.E0);
#26=COLOUR_RGB('',8.E-1,4.E-1,0.E0);
#27=COLOUR_RGB('',8.E-1,8.E-1,8.E-1);
#28=COLOUR_RGB('',8.E-1,1.E0,1.E0);
#29=COLOUR_RGB('',8.43137E-1,8.43137E-1,8.43137E-1);
#30=COLOUR_RGB('',9.37E-1,8.51E-1,9.4E-2);
#31=DRAUGHTING_PRE_DEFINED_COLOUR('red');
#32=COLOUR_RGB('',1.E0,0.E0,2.E-1);
#33=COLOUR_RGB('',1.E0,0.E0,4.E-1);
#34=COLOUR_RGB('',1.E0,0.E0,6.E-1);
#35=COLOUR_RGB('',1.E0,0.E0,8.E-1);
#36=COLOUR_RGB('',1.E0,4.E-1,0.E0);
#37=COLOUR_RGB('',1.E0,4.57E-1,0.E0);
#38=COLOUR_RGB('',1.E0,6.E-1,0.E0);
#39=COLOUR_RGB('',1.E0,7.15E-1,4.11E-1);
#40=COLOUR_RGB('',1.E0,8.E-1,0.E0);
#41=COLOUR_RGB('',1.E0,8.E-1,4.E-1);
#42=DRAUGHTING_PRE_DEFINED_COLOUR('yellow');
#43=COLOUR_RGB('',1.E0,1.E0,2.E-1);
#44=COLOUR_RGB('',1.E0,1.E0,4.E-1);
#45=COLOUR_RGB('',1.E0,1.E0,6.E-1);
#46=COLOUR_RGB('',1.E0,1.E0,8.E-1);
#47=DRAUGHTING_PRE_DEFINED_COLOUR('white');
#52=CIRCLE('',#51,6.05E0);
#65=CIRCLE('',#64,6.05E0);
#70=CIRCLE('',#69,6.05E0);
#75=CIRCLE('',#74,6.05E0);
#80=CIRCLE('',#79,7.75E0);
#93=CIRCLE('',#92,7.75E0);
#98=CIRCLE('',#97,7.75E0);
#103=CIRCLE('',#102,7.75E0);
#108=CIRCLE('',#107,1.25E1);
#121=CIRCLE('',#120,1.25E1);
#126=CIRCLE('',#125,1.25E1);
#131=CIRCLE('',#130,1.25E1);
#161=EDGE_CURVE('',#134,#135,#56,.T.);
#163=EDGE_CURVE('',#134,#146,#52,.T.);
#165=EDGE_CURVE('',#146,#147,#60,.T.);
#167=EDGE_CURVE('',#135,#147,#75,.T.);
#171=ADVANCED_FACE('',(#170),#160,.F.);
#178=EDGE_CURVE('',#135,#147,#70,.T.);
#181=EDGE_CURVE('',#134,#146,#65,.T.);
#185=ADVANCED_FACE('',(#184),#176,.F.);
#191=EDGE_CURVE('',#138,#150,#80,.T.);
#193=EDGE_CURVE('',#138,#150,#93,.T.);
#201=ADVANCED_FACE('',(#196,#200),#190,.T.);
#207=EDGE_CURVE('',#138,#139,#84,.T.);
#210=EDGE_CURVE('',#150,#151,#88,.T.);
#212=EDGE_CURVE('',#139,#151,#103,.T.);
#216=ADVANCED_FACE('',(#215),#206,.T.);
#223=EDGE_CURVE('',#139,#151,#98,.T.);
#229=ADVANCED_FACE('',(#228),#221,.T.);
#235=EDGE_CURVE('',#142,#154,#108,.T.);
#237=EDGE_CURVE('',#142,#154,#121,.T.);
#245=ADVANCED_FACE('',(#240,#244),#234,.T.);
#251=EDGE_CURVE('',#142,#143,#112,.T.);
#254=EDGE_CURVE('',#154,#155,#116,.T.);
#256=EDGE_CURVE('',#143,#155,#131,.T.);
#260=ADVANCED_FACE('',(#259),#250,.T.);
#267=EDGE_CURVE('',#143,#155,#126,.T.);
#273=ADVANCED_FACE('',(#272),#265,.T.);
#287=ADVANCED_FACE('',(#282,#286),#278,.F.);
#291=(LENGTH_UNIT()NAMED_UNIT(*)SI_UNIT(.MILLI.,.METRE.));
#292=(NAMED_UNIT(*)PLANE_ANGLE_UNIT()SI_UNIT($,.RADIAN.));
#295=(NAMED_UNIT(*)SI_UNIT($,.STERADIAN.)SOLID_ANGLE_UNIT());
#297=(GEOMETRIC_REPRESENTATION_CONTEXT(3)GLOBAL_UNCERTAINTY_ASSIGNED_CONTEXT((
#296))GLOBAL_UNIT_ASSIGNED_CONTEXT((#291,#294,#295))REPRESENTATION_CONTEXT
('ID1','3'));
#298=ADVANCED_BREP_SHAPE_REPRESENTATION('',(#289),#297);
#305=PRODUCT_DEFINITION('design','',#304,#301);
#306=PRODUCT_DEFINITION_SHAPE('','SHAPE FOR MANCHON.',#305);
#307=SHAPE_ASPECT('','solid data associated with MANCHON',#306,.F.);
#308=PROPERTY_DEFINITION('',
'shape for solid data with which properties are associated',#307);
#309=SHAPE_REPRESENTATION('',(#289),#297);
#310=SHAPE_DEFINITION_REPRESENTATION(#308,#309);
#311=(LENGTH_UNIT()NAMED_UNIT(*)SI_UNIT(.MILLI.,.METRE.));
#315=PROPERTY_DEFINITION('geometric validation property','area of MANCHON',
#307);
#316=REPRESENTATION('surface area',(#314),#297);
#317=PROPERTY_DEFINITION_REPRESENTATION(#315,#316);
#318=(LENGTH_UNIT()NAMED_UNIT(*)SI_UNIT(.MILLI.,.METRE.));
#322=PROPERTY_DEFINITION('geometric validation property','volume of MANCHON',
#307);
#323=REPRESENTATION('volume',(#321),#297);
#324=PROPERTY_DEFINITION_REPRESENTATION(#322,#323);
#326=PROPERTY_DEFINITION('geometric validation property','centroid of MANCHON',
#307);
#327=REPRESENTATION('centroid',(#325),#297);
#328=PROPERTY_DEFINITION_REPRESENTATION(#326,#327);
#329=(LENGTH_UNIT()NAMED_UNIT(*)SI_UNIT(.MILLI.,.METRE.));
#333=PROPERTY_DEFINITION('geometric validation property','area of MANCHON',
#306);
#334=REPRESENTATION('surface area',(#332),#297);
#335=PROPERTY_DEFINITION_REPRESENTATION(#333,#334);
#336=(LENGTH_UNIT()NAMED_UNIT(*)SI_UNIT(.MILLI.,.METRE.));
#340=PROPERTY_DEFINITION('geometric validation property','volume of MANCHON',
#306);
#341=REPRESENTATION('volume',(#339),#297);
#342=PROPERTY_DEFINITION_REPRESENTATION(#340,#341);
#344=PROPERTY_DEFINITION('geometric validation property','centroid of MANCHON',
#306);
#345=REPRESENTATION('centroid',(#343),#297);
#346=PROPERTY_DEFINITION_REPRESENTATION(#344,#345);
#347=SHAPE_DEFINITION_REPRESENTATION(#306,#298);
ENDSEC;
END-ISO-10303-21;
