ISO-10303-21;
HEADER;
FILE_DESCRIPTION(('CATIA V5 STEP Exchange'),'2;1');

FILE_NAME('C:\\Users\\flof5\\OneDrive\\Documents\\Simulafoot\\Nouvelle vague\\Prototypes\\Piece 3.stp','2020-06-06T15:28:53+00:00',('none'),('none'),'CATIA Version 5 Release 21 GA (IN-10)','CATIA V5 STEP AP203','none');

FILE_SCHEMA(('CONFIG_CONTROL_DESIGN'));

ENDSEC;
/* file written by CATIA V5R21 */
DATA;
#5=PRODUCT('Part2.1.2','','',(#2)) ;
#1=APPLICATION_CONTEXT('configuration controlled 3D design of mechanical parts and assemblies') ;
#14=PRODUCT_DEFINITION('',' ',#6,#3) ;
#16=SECURITY_CLASSIFICATION(' ',' ',#15) ;
#15=SECURITY_CLASSIFICATION_LEVEL('unclassified') ;
#47=CARTESIAN_POINT(' ',(0.,0.,0.)) ;
#52=CARTESIAN_POINT('Axis2P3D Location',(-152.,325.,15.)) ;
#57=CARTESIAN_POINT('Line Origine',(-133.5,325.,0.)) ;
#61=CARTESIAN_POINT('Vertex',(-152.,325.,1.7763568394E-015)) ;
#63=CARTESIAN_POINT('Vertex',(-115.,325.,0.)) ;
#66=CARTESIAN_POINT('Line Origine',(-115.,325.,7.5)) ;
#70=CARTESIAN_POINT('Vertex',(-115.,325.,15.)) ;
#73=CARTESIAN_POINT('Line Origine',(-133.5,325.,15.)) ;
#77=CARTESIAN_POINT('Vertex',(-152.,325.,15.)) ;
#80=CARTESIAN_POINT('Line Origine',(-152.,325.,7.5)) ;
#92=CARTESIAN_POINT('Axis2P3D Location',(-152.,325.,15.)) ;
#97=CARTESIAN_POINT('Line Origine',(-152.,272.5,15.)) ;
#101=CARTESIAN_POINT('Vertex',(-152.,220.,15.)) ;
#104=CARTESIAN_POINT('Line Origine',(-152.,220.,7.5)) ;
#108=CARTESIAN_POINT('Vertex',(-152.,220.,1.7763568394E-015)) ;
#111=CARTESIAN_POINT('Line Origine',(-152.,272.5,0.)) ;
#123=CARTESIAN_POINT('Axis2P3D Location',(0.,0.,15.)) ;
#128=CARTESIAN_POINT('Line Origine',(-190.,272.5,15.)) ;
#132=CARTESIAN_POINT('Vertex',(-190.,612.5,15.)) ;
#134=CARTESIAN_POINT('Vertex',(-190.,-67.5,15.)) ;
#137=CARTESIAN_POINT('Line Origine',(286.,-67.5,15.)) ;
#141=CARTESIAN_POINT('Vertex',(762.,-67.5,15.)) ;
#144=CARTESIAN_POINT('Line Origine',(762.,272.5,15.)) ;
#148=CARTESIAN_POINT('Vertex',(762.,612.5,15.)) ;
#151=CARTESIAN_POINT('Line Origine',(286.,612.5,15.)) ;
#162=CARTESIAN_POINT('Line Origine',(-133.5,220.,15.)) ;
#166=CARTESIAN_POINT('Vertex',(-115.,220.,15.)) ;
#169=CARTESIAN_POINT('Line Origine',(-115.,434.75,15.)) ;
#173=CARTESIAN_POINT('Vertex',(-115.,544.5,15.)) ;
#176=CARTESIAN_POINT('Line Origine',(286.,544.5,15.)) ;
#180=CARTESIAN_POINT('Vertex',(687.,544.5,15.)) ;
#183=CARTESIAN_POINT('Line Origine',(687.,434.75,15.)) ;
#187=CARTESIAN_POINT('Vertex',(687.,325.,15.)) ;
#190=CARTESIAN_POINT('Line Origine',(705.5,325.,15.)) ;
#194=CARTESIAN_POINT('Vertex',(724.,325.,15.)) ;
#197=CARTESIAN_POINT('Line Origine',(724.,272.5,15.)) ;
#201=CARTESIAN_POINT('Vertex',(724.,220.,15.)) ;
#204=CARTESIAN_POINT('Line Origine',(705.5,220.,15.)) ;
#208=CARTESIAN_POINT('Vertex',(687.,220.,15.)) ;
#211=CARTESIAN_POINT('Line Origine',(687.,110.25,15.)) ;
#215=CARTESIAN_POINT('Vertex',(687.,0.5,15.)) ;
#218=CARTESIAN_POINT('Line Origine',(286.,0.5,15.)) ;
#222=CARTESIAN_POINT('Vertex',(-115.,0.5,15.)) ;
#225=CARTESIAN_POINT('Line Origine',(-115.,110.25,15.)) ;
#245=CARTESIAN_POINT('Axis2P3D Location',(0.,0.,0.)) ;
#250=CARTESIAN_POINT('Line Origine',(286.,612.5,0.)) ;
#254=CARTESIAN_POINT('Vertex',(762.,612.5,0.)) ;
#256=CARTESIAN_POINT('Vertex',(-190.,612.5,0.)) ;
#259=CARTESIAN_POINT('Line Origine',(762.,272.5,0.)) ;
#263=CARTESIAN_POINT('Vertex',(762.,-67.5,0.)) ;
#266=CARTESIAN_POINT('Line Origine',(286.,-67.5,0.)) ;
#270=CARTESIAN_POINT('Vertex',(-190.,-67.5,0.)) ;
#273=CARTESIAN_POINT('Line Origine',(-190.,272.5,0.)) ;
#284=CARTESIAN_POINT('Line Origine',(-115.,110.25,0.)) ;
#288=CARTESIAN_POINT('Vertex',(-115.,220.,0.)) ;
#290=CARTESIAN_POINT('Vertex',(-115.,0.5,0.)) ;
#293=CARTESIAN_POINT('Line Origine',(286.,0.5,0.)) ;
#297=CARTESIAN_POINT('Vertex',(687.,0.5,0.)) ;
#300=CARTESIAN_POINT('Line Origine',(687.,110.25,0.)) ;
#304=CARTESIAN_POINT('Vertex',(687.,220.,0.)) ;
#307=CARTESIAN_POINT('Line Origine',(705.5,220.,0.)) ;
#311=CARTESIAN_POINT('Vertex',(724.,220.,1.7763568394E-015)) ;
#314=CARTESIAN_POINT('Line Origine',(724.,272.5,0.)) ;
#318=CARTESIAN_POINT('Vertex',(724.,325.,1.7763568394E-015)) ;
#321=CARTESIAN_POINT('Line Origine',(705.5,325.,0.)) ;
#325=CARTESIAN_POINT('Vertex',(687.,325.,0.)) ;
#328=CARTESIAN_POINT('Line Origine',(687.,434.75,0.)) ;
#332=CARTESIAN_POINT('Vertex',(687.,544.5,0.)) ;
#335=CARTESIAN_POINT('Line Origine',(286.,544.5,0.)) ;
#339=CARTESIAN_POINT('Vertex',(-115.,544.5,0.)) ;
#342=CARTESIAN_POINT('Line Origine',(-115.,434.75,0.)) ;
#347=CARTESIAN_POINT('Line Origine',(-133.5,220.,0.)) ;
#367=CARTESIAN_POINT('Axis2P3D Location',(-115.,220.,15.)) ;
#372=CARTESIAN_POINT('Line Origine',(-115.,220.,7.5)) ;
#384=CARTESIAN_POINT('Axis2P3D Location',(-190.,612.5,0.)) ;
#389=CARTESIAN_POINT('Line Origine',(-190.,612.5,7.5)) ;
#394=CARTESIAN_POINT('Line Origine',(-190.,-67.5,7.5)) ;
#406=CARTESIAN_POINT('Axis2P3D Location',(762.,-67.5,0.)) ;
#411=CARTESIAN_POINT('Line Origine',(762.,-67.5,7.5)) ;
#423=CARTESIAN_POINT('Axis2P3D Location',(762.,-67.5,0.)) ;
#428=CARTESIAN_POINT('Line Origine',(762.,612.5,7.5)) ;
#440=CARTESIAN_POINT('Axis2P3D Location',(-190.,612.5,0.)) ;
#452=CARTESIAN_POINT('Axis2P3D Location',(-115.,544.5,0.)) ;
#457=CARTESIAN_POINT('Line Origine',(-115.,0.5,7.5)) ;
#469=CARTESIAN_POINT('Axis2P3D Location',(687.,0.5,0.)) ;
#474=CARTESIAN_POINT('Line Origine',(687.,0.5,7.5)) ;
#486=CARTESIAN_POINT('Axis2P3D Location',(687.,0.5,0.)) ;
#491=CARTESIAN_POINT('Line Origine',(687.,220.,7.5)) ;
#503=CARTESIAN_POINT('Line Origine',(724.,220.,7.5)) ;
#515=CARTESIAN_POINT('Axis2P3D Location',(724.,325.,15.)) ;
#520=CARTESIAN_POINT('Line Origine',(724.,325.,7.5)) ;
#532=CARTESIAN_POINT('Line Origine',(687.,325.,7.5)) ;
#544=CARTESIAN_POINT('Line Origine',(687.,544.5,7.5)) ;
#556=CARTESIAN_POINT('Axis2P3D Location',(-115.,544.5,0.)) ;
#561=CARTESIAN_POINT('Line Origine',(-115.,544.5,7.5)) ;
#53=DIRECTION('Axis2P3D Direction',(-0.,1.,0.)) ;
#54=DIRECTION('Axis2P3D XDirection',(1.,0.,0.)) ;
#58=DIRECTION('Vector Direction',(1.,0.,0.)) ;
#67=DIRECTION('Vector Direction',(0.,0.,-1.)) ;
#74=DIRECTION('Vector Direction',(1.,0.,0.)) ;
#81=DIRECTION('Vector Direction',(0.,0.,-1.)) ;
#93=DIRECTION('Axis2P3D Direction',(1.,0.,0.)) ;
#94=DIRECTION('Axis2P3D XDirection',(0.,-1.,0.)) ;
#98=DIRECTION('Vector Direction',(0.,-1.,0.)) ;
#105=DIRECTION('Vector Direction',(0.,0.,-1.)) ;
#112=DIRECTION('Vector Direction',(0.,-1.,0.)) ;
#124=DIRECTION('Axis2P3D Direction',(0.,0.,1.)) ;
#125=DIRECTION('Axis2P3D XDirection',(1.,0.,0.)) ;
#129=DIRECTION('Vector Direction',(0.,-1.,0.)) ;
#138=DIRECTION('Vector Direction',(-1.,0.,0.)) ;
#145=DIRECTION('Vector Direction',(0.,1.,0.)) ;
#152=DIRECTION('Vector Direction',(1.,0.,0.)) ;
#163=DIRECTION('Vector Direction',(-1.,0.,0.)) ;
#170=DIRECTION('Vector Direction',(0.,-1.,0.)) ;
#177=DIRECTION('Vector Direction',(1.,0.,0.)) ;
#184=DIRECTION('Vector Direction',(0.,1.,0.)) ;
#191=DIRECTION('Vector Direction',(-1.,0.,0.)) ;
#198=DIRECTION('Vector Direction',(0.,-1.,0.)) ;
#205=DIRECTION('Vector Direction',(1.,0.,0.)) ;
#212=DIRECTION('Vector Direction',(0.,1.,0.)) ;
#219=DIRECTION('Vector Direction',(-1.,0.,0.)) ;
#226=DIRECTION('Vector Direction',(0.,-1.,0.)) ;
#246=DIRECTION('Axis2P3D Direction',(0.,0.,1.)) ;
#247=DIRECTION('Axis2P3D XDirection',(1.,0.,0.)) ;
#251=DIRECTION('Vector Direction',(1.,0.,0.)) ;
#260=DIRECTION('Vector Direction',(0.,1.,0.)) ;
#267=DIRECTION('Vector Direction',(-1.,0.,0.)) ;
#274=DIRECTION('Vector Direction',(0.,-1.,0.)) ;
#285=DIRECTION('Vector Direction',(0.,-1.,0.)) ;
#294=DIRECTION('Vector Direction',(-1.,0.,0.)) ;
#301=DIRECTION('Vector Direction',(0.,1.,0.)) ;
#308=DIRECTION('Vector Direction',(-1.,0.,0.)) ;
#315=DIRECTION('Vector Direction',(0.,-1.,0.)) ;
#322=DIRECTION('Vector Direction',(1.,0.,0.)) ;
#329=DIRECTION('Vector Direction',(0.,1.,0.)) ;
#336=DIRECTION('Vector Direction',(1.,0.,0.)) ;
#343=DIRECTION('Vector Direction',(0.,-1.,0.)) ;
#348=DIRECTION('Vector Direction',(-1.,0.,0.)) ;
#368=DIRECTION('Axis2P3D Direction',(-0.,-1.,-0.)) ;
#369=DIRECTION('Axis2P3D XDirection',(-1.,0.,0.)) ;
#373=DIRECTION('Vector Direction',(0.,0.,-1.)) ;
#385=DIRECTION('Axis2P3D Direction',(-1.,0.,0.)) ;
#386=DIRECTION('Axis2P3D XDirection',(0.,-1.,0.)) ;
#390=DIRECTION('Vector Direction',(0.,0.,1.)) ;
#395=DIRECTION('Vector Direction',(0.,0.,1.)) ;
#407=DIRECTION('Axis2P3D Direction',(0.,1.,-0.)) ;
#408=DIRECTION('Axis2P3D XDirection',(-1.,0.,0.)) ;
#412=DIRECTION('Vector Direction',(0.,0.,1.)) ;
#424=DIRECTION('Axis2P3D Direction',(1.,0.,0.)) ;
#425=DIRECTION('Axis2P3D XDirection',(0.,1.,0.)) ;
#429=DIRECTION('Vector Direction',(0.,0.,1.)) ;
#441=DIRECTION('Axis2P3D Direction',(0.,-1.,0.)) ;
#442=DIRECTION('Axis2P3D XDirection',(1.,0.,0.)) ;
#453=DIRECTION('Axis2P3D Direction',(-1.,0.,0.)) ;
#454=DIRECTION('Axis2P3D XDirection',(0.,-1.,0.)) ;
#458=DIRECTION('Vector Direction',(0.,0.,1.)) ;
#470=DIRECTION('Axis2P3D Direction',(0.,1.,-0.)) ;
#471=DIRECTION('Axis2P3D XDirection',(-1.,0.,0.)) ;
#475=DIRECTION('Vector Direction',(0.,0.,1.)) ;
#487=DIRECTION('Axis2P3D Direction',(1.,0.,0.)) ;
#488=DIRECTION('Axis2P3D XDirection',(0.,1.,0.)) ;
#492=DIRECTION('Vector Direction',(0.,0.,-1.)) ;
#504=DIRECTION('Vector Direction',(0.,0.,-1.)) ;
#516=DIRECTION('Axis2P3D Direction',(1.,0.,0.)) ;
#517=DIRECTION('Axis2P3D XDirection',(0.,-1.,0.)) ;
#521=DIRECTION('Vector Direction',(0.,0.,-1.)) ;
#533=DIRECTION('Vector Direction',(0.,0.,-1.)) ;
#545=DIRECTION('Vector Direction',(0.,0.,1.)) ;
#557=DIRECTION('Axis2P3D Direction',(0.,-1.,0.)) ;
#558=DIRECTION('Axis2P3D XDirection',(1.,0.,0.)) ;
#562=DIRECTION('Vector Direction',(0.,0.,1.)) ;
#48=AXIS2_PLACEMENT_3D(' ',#47,$,$) ;
#55=AXIS2_PLACEMENT_3D('Plane Axis2P3D',#52,#53,#54) ;
#95=AXIS2_PLACEMENT_3D('Plane Axis2P3D',#92,#93,#94) ;
#126=AXIS2_PLACEMENT_3D('Plane Axis2P3D',#123,#124,#125) ;
#248=AXIS2_PLACEMENT_3D('Plane Axis2P3D',#245,#246,#247) ;
#370=AXIS2_PLACEMENT_3D('Plane Axis2P3D',#367,#368,#369) ;
#387=AXIS2_PLACEMENT_3D('Plane Axis2P3D',#384,#385,#386) ;
#409=AXIS2_PLACEMENT_3D('Plane Axis2P3D',#406,#407,#408) ;
#426=AXIS2_PLACEMENT_3D('Plane Axis2P3D',#423,#424,#425) ;
#443=AXIS2_PLACEMENT_3D('Plane Axis2P3D',#440,#441,#442) ;
#455=AXIS2_PLACEMENT_3D('Plane Axis2P3D',#452,#453,#454) ;
#472=AXIS2_PLACEMENT_3D('Plane Axis2P3D',#469,#470,#471) ;
#489=AXIS2_PLACEMENT_3D('Plane Axis2P3D',#486,#487,#488) ;
#518=AXIS2_PLACEMENT_3D('Plane Axis2P3D',#515,#516,#517) ;
#559=AXIS2_PLACEMENT_3D('Plane Axis2P3D',#556,#557,#558) ;
#40=PRODUCT_DEFINITION_SHAPE(' ',' ',#14) ;
#31=APPROVAL_PERSON_ORGANIZATION(#25,#21,#19) ;
#25=PERSON_AND_ORGANIZATION(#22,#23) ;
#22=PERSON(' ',' ',' ',$,$,$) ;
#23=ORGANIZATION(' ',' ',' ') ;
#21=APPROVAL(#20,' ') ;
#20=APPROVAL_STATUS('not_yet_approved') ;
#19=APPROVAL_ROLE('APPROVER') ;
#13=DATE_AND_TIME(#11,#12) ;
#12=LOCAL_TIME(17,28,53.,#10) ;
#10=COORDINATED_UNIVERSAL_TIME_OFFSET(0,0,.AHEAD.) ;
#86=ORIENTED_EDGE('',*,*,#65,.T.) ;
#87=ORIENTED_EDGE('',*,*,#72,.F.) ;
#88=ORIENTED_EDGE('',*,*,#79,.T.) ;
#89=ORIENTED_EDGE('',*,*,#84,.T.) ;
#117=ORIENTED_EDGE('',*,*,#84,.F.) ;
#118=ORIENTED_EDGE('',*,*,#103,.T.) ;
#119=ORIENTED_EDGE('',*,*,#110,.T.) ;
#120=ORIENTED_EDGE('',*,*,#115,.F.) ;
#157=ORIENTED_EDGE('',*,*,#136,.T.) ;
#158=ORIENTED_EDGE('',*,*,#143,.T.) ;
#159=ORIENTED_EDGE('',*,*,#150,.T.) ;
#160=ORIENTED_EDGE('',*,*,#155,.T.) ;
#231=ORIENTED_EDGE('',*,*,#168,.F.) ;
#232=ORIENTED_EDGE('',*,*,#103,.F.) ;
#233=ORIENTED_EDGE('',*,*,#79,.F.) ;
#234=ORIENTED_EDGE('',*,*,#175,.F.) ;
#235=ORIENTED_EDGE('',*,*,#182,.F.) ;
#236=ORIENTED_EDGE('',*,*,#189,.F.) ;
#237=ORIENTED_EDGE('',*,*,#196,.F.) ;
#238=ORIENTED_EDGE('',*,*,#203,.F.) ;
#239=ORIENTED_EDGE('',*,*,#210,.F.) ;
#240=ORIENTED_EDGE('',*,*,#217,.F.) ;
#241=ORIENTED_EDGE('',*,*,#224,.F.) ;
#242=ORIENTED_EDGE('',*,*,#229,.F.) ;
#279=ORIENTED_EDGE('',*,*,#258,.F.) ;
#280=ORIENTED_EDGE('',*,*,#265,.F.) ;
#281=ORIENTED_EDGE('',*,*,#272,.F.) ;
#282=ORIENTED_EDGE('',*,*,#277,.F.) ;
#353=ORIENTED_EDGE('',*,*,#292,.T.) ;
#354=ORIENTED_EDGE('',*,*,#299,.T.) ;
#355=ORIENTED_EDGE('',*,*,#306,.T.) ;
#356=ORIENTED_EDGE('',*,*,#313,.F.) ;
#357=ORIENTED_EDGE('',*,*,#320,.F.) ;
#358=ORIENTED_EDGE('',*,*,#327,.F.) ;
#359=ORIENTED_EDGE('',*,*,#334,.T.) ;
#360=ORIENTED_EDGE('',*,*,#341,.T.) ;
#361=ORIENTED_EDGE('',*,*,#346,.T.) ;
#362=ORIENTED_EDGE('',*,*,#65,.F.) ;
#363=ORIENTED_EDGE('',*,*,#115,.T.) ;
#364=ORIENTED_EDGE('',*,*,#351,.F.) ;
#378=ORIENTED_EDGE('',*,*,#351,.T.) ;
#379=ORIENTED_EDGE('',*,*,#110,.F.) ;
#380=ORIENTED_EDGE('',*,*,#168,.T.) ;
#381=ORIENTED_EDGE('',*,*,#376,.T.) ;
#400=ORIENTED_EDGE('',*,*,#393,.F.) ;
#401=ORIENTED_EDGE('',*,*,#277,.T.) ;
#402=ORIENTED_EDGE('',*,*,#398,.T.) ;
#403=ORIENTED_EDGE('',*,*,#136,.F.) ;
#417=ORIENTED_EDGE('',*,*,#398,.F.) ;
#418=ORIENTED_EDGE('',*,*,#272,.T.) ;
#419=ORIENTED_EDGE('',*,*,#415,.T.) ;
#420=ORIENTED_EDGE('',*,*,#143,.F.) ;
#434=ORIENTED_EDGE('',*,*,#415,.F.) ;
#435=ORIENTED_EDGE('',*,*,#265,.T.) ;
#436=ORIENTED_EDGE('',*,*,#432,.T.) ;
#437=ORIENTED_EDGE('',*,*,#150,.F.) ;
#446=ORIENTED_EDGE('',*,*,#432,.F.) ;
#447=ORIENTED_EDGE('',*,*,#258,.T.) ;
#448=ORIENTED_EDGE('',*,*,#393,.T.) ;
#449=ORIENTED_EDGE('',*,*,#155,.F.) ;
#463=ORIENTED_EDGE('',*,*,#376,.F.) ;
#464=ORIENTED_EDGE('',*,*,#229,.T.) ;
#465=ORIENTED_EDGE('',*,*,#461,.F.) ;
#466=ORIENTED_EDGE('',*,*,#292,.F.) ;
#480=ORIENTED_EDGE('',*,*,#224,.T.) ;
#481=ORIENTED_EDGE('',*,*,#478,.F.) ;
#482=ORIENTED_EDGE('',*,*,#299,.F.) ;
#483=ORIENTED_EDGE('',*,*,#461,.T.) ;
#497=ORIENTED_EDGE('',*,*,#495,.T.) ;
#498=ORIENTED_EDGE('',*,*,#306,.F.) ;
#499=ORIENTED_EDGE('',*,*,#478,.T.) ;
#500=ORIENTED_EDGE('',*,*,#217,.T.) ;
#509=ORIENTED_EDGE('',*,*,#313,.T.) ;
#510=ORIENTED_EDGE('',*,*,#495,.F.) ;
#511=ORIENTED_EDGE('',*,*,#210,.T.) ;
#512=ORIENTED_EDGE('',*,*,#507,.T.) ;
#526=ORIENTED_EDGE('',*,*,#320,.T.) ;
#527=ORIENTED_EDGE('',*,*,#507,.F.) ;
#528=ORIENTED_EDGE('',*,*,#203,.T.) ;
#529=ORIENTED_EDGE('',*,*,#524,.T.) ;
#538=ORIENTED_EDGE('',*,*,#327,.T.) ;
#539=ORIENTED_EDGE('',*,*,#524,.F.) ;
#540=ORIENTED_EDGE('',*,*,#196,.T.) ;
#541=ORIENTED_EDGE('',*,*,#536,.T.) ;
#550=ORIENTED_EDGE('',*,*,#536,.F.) ;
#551=ORIENTED_EDGE('',*,*,#189,.T.) ;
#552=ORIENTED_EDGE('',*,*,#548,.F.) ;
#553=ORIENTED_EDGE('',*,*,#334,.F.) ;
#567=ORIENTED_EDGE('',*,*,#182,.T.) ;
#568=ORIENTED_EDGE('',*,*,#565,.F.) ;
#569=ORIENTED_EDGE('',*,*,#341,.F.) ;
#570=ORIENTED_EDGE('',*,*,#548,.T.) ;
#574=ORIENTED_EDGE('',*,*,#72,.T.) ;
#575=ORIENTED_EDGE('',*,*,#346,.F.) ;
#576=ORIENTED_EDGE('',*,*,#565,.T.) ;
#577=ORIENTED_EDGE('',*,*,#175,.T.) ;
#243=FACE_BOUND('',#230,.T.) ;
#365=FACE_BOUND('',#352,.T.) ;
#51=CLOSED_SHELL('Closed Shell',(#91,#122,#244,#366,#383,#405,#422,#439,#451,#468,#485,#502,#514,#531,#543,#555,#572,#579)) ;
#59=VECTOR('Line Direction',#58,1.) ;
#68=VECTOR('Line Direction',#67,1.) ;
#75=VECTOR('Line Direction',#74,1.) ;
#82=VECTOR('Line Direction',#81,1.) ;
#99=VECTOR('Line Direction',#98,1.) ;
#106=VECTOR('Line Direction',#105,1.) ;
#113=VECTOR('Line Direction',#112,1.) ;
#130=VECTOR('Line Direction',#129,1.) ;
#139=VECTOR('Line Direction',#138,1.) ;
#146=VECTOR('Line Direction',#145,1.) ;
#153=VECTOR('Line Direction',#152,1.) ;
#164=VECTOR('Line Direction',#163,1.) ;
#171=VECTOR('Line Direction',#170,1.) ;
#178=VECTOR('Line Direction',#177,1.) ;
#185=VECTOR('Line Direction',#184,1.) ;
#192=VECTOR('Line Direction',#191,1.) ;
#199=VECTOR('Line Direction',#198,1.) ;
#206=VECTOR('Line Direction',#205,1.) ;
#213=VECTOR('Line Direction',#212,1.) ;
#220=VECTOR('Line Direction',#219,1.) ;
#227=VECTOR('Line Direction',#226,1.) ;
#252=VECTOR('Line Direction',#251,1.) ;
#261=VECTOR('Line Direction',#260,1.) ;
#268=VECTOR('Line Direction',#267,1.) ;
#275=VECTOR('Line Direction',#274,1.) ;
#286=VECTOR('Line Direction',#285,1.) ;
#295=VECTOR('Line Direction',#294,1.) ;
#302=VECTOR('Line Direction',#301,1.) ;
#309=VECTOR('Line Direction',#308,1.) ;
#316=VECTOR('Line Direction',#315,1.) ;
#323=VECTOR('Line Direction',#322,1.) ;
#330=VECTOR('Line Direction',#329,1.) ;
#337=VECTOR('Line Direction',#336,1.) ;
#344=VECTOR('Line Direction',#343,1.) ;
#349=VECTOR('Line Direction',#348,1.) ;
#374=VECTOR('Line Direction',#373,1.) ;
#391=VECTOR('Line Direction',#390,1.) ;
#396=VECTOR('Line Direction',#395,1.) ;
#413=VECTOR('Line Direction',#412,1.) ;
#430=VECTOR('Line Direction',#429,1.) ;
#459=VECTOR('Line Direction',#458,1.) ;
#476=VECTOR('Line Direction',#475,1.) ;
#493=VECTOR('Line Direction',#492,1.) ;
#505=VECTOR('Line Direction',#504,1.) ;
#522=VECTOR('Line Direction',#521,1.) ;
#534=VECTOR('Line Direction',#533,1.) ;
#546=VECTOR('Line Direction',#545,1.) ;
#563=VECTOR('Line Direction',#562,1.) ;
#581=ADVANCED_BREP_SHAPE_REPRESENTATION('NONE',(#580),#46) ;
#49=SHAPE_REPRESENTATION(' ',(#48),#46) ;
#91=ADVANCED_FACE('Corps principal',(#90),#56,.F.) ;
#122=ADVANCED_FACE('Corps principal',(#121),#96,.T.) ;
#244=ADVANCED_FACE('Corps principal',(#161,#243),#127,.T.) ;
#366=ADVANCED_FACE('Corps principal',(#283,#365),#249,.F.) ;
#383=ADVANCED_FACE('Corps principal',(#382),#371,.F.) ;
#405=ADVANCED_FACE('Corps principal',(#404),#388,.T.) ;
#422=ADVANCED_FACE('Corps principal',(#421),#410,.F.) ;
#439=ADVANCED_FACE('Corps principal',(#438),#427,.T.) ;
#451=ADVANCED_FACE('Corps principal',(#450),#444,.F.) ;
#468=ADVANCED_FACE('Corps principal',(#467),#456,.F.) ;
#485=ADVANCED_FACE('Corps principal',(#484),#473,.T.) ;
#502=ADVANCED_FACE('Corps principal',(#501),#490,.F.) ;
#514=ADVANCED_FACE('Corps principal',(#513),#371,.F.) ;
#531=ADVANCED_FACE('Corps principal',(#530),#519,.F.) ;
#543=ADVANCED_FACE('Corps principal',(#542),#56,.F.) ;
#555=ADVANCED_FACE('Corps principal',(#554),#490,.F.) ;
#572=ADVANCED_FACE('Corps principal',(#571),#560,.T.) ;
#579=ADVANCED_FACE('Corps principal',(#578),#456,.F.) ;
#4=APPLICATION_PROTOCOL_DEFINITION('international standard','config_control_design',1994,#1) ;
#32=APPROVAL_DATE_TIME(#13,#21) ;
#580=MANIFOLD_SOLID_BREP('Corps principal',#51) ;
#11=CALENDAR_DATE(2020,6,6) ;
#30=CC_DESIGN_APPROVAL(#21,(#16,#6,#14)) ;
#18=CC_DESIGN_DATE_AND_TIME_ASSIGNMENT(#13,#17,(#16)) ;
#29=CC_DESIGN_DATE_AND_TIME_ASSIGNMENT(#13,#28,(#14)) ;
#17=DATE_TIME_ROLE('classification_date') ;
#28=DATE_TIME_ROLE('creation_date') ;
#27=CC_DESIGN_PERSON_AND_ORGANIZATION_ASSIGNMENT(#25,#26,(#16)) ;
#33=CC_DESIGN_PERSON_AND_ORGANIZATION_ASSIGNMENT(#25,#34,(#6)) ;
#35=CC_DESIGN_PERSON_AND_ORGANIZATION_ASSIGNMENT(#25,#36,(#6,#14)) ;
#37=CC_DESIGN_PERSON_AND_ORGANIZATION_ASSIGNMENT(#25,#38,(#5)) ;
#26=PERSON_AND_ORGANIZATION_ROLE('classification_officer') ;
#34=PERSON_AND_ORGANIZATION_ROLE('design_supplier') ;
#36=PERSON_AND_ORGANIZATION_ROLE('creator') ;
#38=PERSON_AND_ORGANIZATION_ROLE('design_owner') ;
#39=CC_DESIGN_SECURITY_CLASSIFICATION(#16,(#6)) ;
#582=SHAPE_REPRESENTATION_RELATIONSHIP(' ',' ',#49,#581) ;
#3=DESIGN_CONTEXT(' ',#1,'design') ;
#65=EDGE_CURVE('',#62,#64,#60,.T.) ;
#72=EDGE_CURVE('',#71,#64,#69,.T.) ;
#79=EDGE_CURVE('',#71,#78,#76,.F.) ;
#84=EDGE_CURVE('',#78,#62,#83,.T.) ;
#103=EDGE_CURVE('',#78,#102,#100,.T.) ;
#110=EDGE_CURVE('',#102,#109,#107,.T.) ;
#115=EDGE_CURVE('',#62,#109,#114,.T.) ;
#136=EDGE_CURVE('',#133,#135,#131,.T.) ;
#143=EDGE_CURVE('',#135,#142,#140,.F.) ;
#150=EDGE_CURVE('',#142,#149,#147,.T.) ;
#155=EDGE_CURVE('',#149,#133,#154,.F.) ;
#168=EDGE_CURVE('',#102,#167,#165,.F.) ;
#175=EDGE_CURVE('',#174,#71,#172,.T.) ;
#182=EDGE_CURVE('',#181,#174,#179,.F.) ;
#189=EDGE_CURVE('',#188,#181,#186,.T.) ;
#196=EDGE_CURVE('',#195,#188,#193,.T.) ;
#203=EDGE_CURVE('',#202,#195,#200,.F.) ;
#210=EDGE_CURVE('',#209,#202,#207,.T.) ;
#217=EDGE_CURVE('',#216,#209,#214,.T.) ;
#224=EDGE_CURVE('',#223,#216,#221,.F.) ;
#229=EDGE_CURVE('',#167,#223,#228,.T.) ;
#258=EDGE_CURVE('',#255,#257,#253,.F.) ;
#265=EDGE_CURVE('',#264,#255,#262,.T.) ;
#272=EDGE_CURVE('',#271,#264,#269,.F.) ;
#277=EDGE_CURVE('',#257,#271,#276,.T.) ;
#292=EDGE_CURVE('',#289,#291,#287,.T.) ;
#299=EDGE_CURVE('',#291,#298,#296,.F.) ;
#306=EDGE_CURVE('',#298,#305,#303,.T.) ;
#313=EDGE_CURVE('',#312,#305,#310,.T.) ;
#320=EDGE_CURVE('',#319,#312,#317,.T.) ;
#327=EDGE_CURVE('',#326,#319,#324,.T.) ;
#334=EDGE_CURVE('',#326,#333,#331,.T.) ;
#341=EDGE_CURVE('',#333,#340,#338,.F.) ;
#346=EDGE_CURVE('',#340,#64,#345,.T.) ;
#351=EDGE_CURVE('',#289,#109,#350,.T.) ;
#376=EDGE_CURVE('',#167,#289,#375,.T.) ;
#393=EDGE_CURVE('',#257,#133,#392,.T.) ;
#398=EDGE_CURVE('',#271,#135,#397,.T.) ;
#415=EDGE_CURVE('',#264,#142,#414,.T.) ;
#432=EDGE_CURVE('',#255,#149,#431,.T.) ;
#461=EDGE_CURVE('',#291,#223,#460,.T.) ;
#478=EDGE_CURVE('',#298,#216,#477,.T.) ;
#495=EDGE_CURVE('',#209,#305,#494,.T.) ;
#507=EDGE_CURVE('',#202,#312,#506,.T.) ;
#524=EDGE_CURVE('',#195,#319,#523,.T.) ;
#536=EDGE_CURVE('',#188,#326,#535,.T.) ;
#548=EDGE_CURVE('',#333,#181,#547,.T.) ;
#565=EDGE_CURVE('',#340,#174,#564,.T.) ;
#85=EDGE_LOOP('',(#86,#87,#88,#89)) ;
#116=EDGE_LOOP('',(#117,#118,#119,#120)) ;
#156=EDGE_LOOP('',(#157,#158,#159,#160)) ;
#230=EDGE_LOOP('',(#231,#232,#233,#234,#235,#236,#237,#238,#239,#240,#241,#242)) ;
#278=EDGE_LOOP('',(#279,#280,#281,#282)) ;
#352=EDGE_LOOP('',(#353,#354,#355,#356,#357,#358,#359,#360,#361,#362,#363,#364)) ;
#377=EDGE_LOOP('',(#378,#379,#380,#381)) ;
#399=EDGE_LOOP('',(#400,#401,#402,#403)) ;
#416=EDGE_LOOP('',(#417,#418,#419,#420)) ;
#433=EDGE_LOOP('',(#434,#435,#436,#437)) ;
#445=EDGE_LOOP('',(#446,#447,#448,#449)) ;
#462=EDGE_LOOP('',(#463,#464,#465,#466)) ;
#479=EDGE_LOOP('',(#480,#481,#482,#483)) ;
#496=EDGE_LOOP('',(#497,#498,#499,#500)) ;
#508=EDGE_LOOP('',(#509,#510,#511,#512)) ;
#525=EDGE_LOOP('',(#526,#527,#528,#529)) ;
#537=EDGE_LOOP('',(#538,#539,#540,#541)) ;
#549=EDGE_LOOP('',(#550,#551,#552,#553)) ;
#566=EDGE_LOOP('',(#567,#568,#569,#570)) ;
#573=EDGE_LOOP('',(#574,#575,#576,#577)) ;
#90=FACE_OUTER_BOUND('',#85,.T.) ;
#121=FACE_OUTER_BOUND('',#116,.T.) ;
#161=FACE_OUTER_BOUND('',#156,.T.) ;
#283=FACE_OUTER_BOUND('',#278,.T.) ;
#382=FACE_OUTER_BOUND('',#377,.T.) ;
#404=FACE_OUTER_BOUND('',#399,.T.) ;
#421=FACE_OUTER_BOUND('',#416,.T.) ;
#438=FACE_OUTER_BOUND('',#433,.T.) ;
#450=FACE_OUTER_BOUND('',#445,.T.) ;
#467=FACE_OUTER_BOUND('',#462,.T.) ;
#484=FACE_OUTER_BOUND('',#479,.T.) ;
#501=FACE_OUTER_BOUND('',#496,.T.) ;
#513=FACE_OUTER_BOUND('',#508,.T.) ;
#530=FACE_OUTER_BOUND('',#525,.T.) ;
#542=FACE_OUTER_BOUND('',#537,.T.) ;
#554=FACE_OUTER_BOUND('',#549,.T.) ;
#571=FACE_OUTER_BOUND('',#566,.T.) ;
#578=FACE_OUTER_BOUND('',#573,.T.) ;
#45=UNCERTAINTY_MEASURE_WITH_UNIT(LENGTH_MEASURE(0.005),#41,'distance_accuracy_value','CONFUSED CURVE UNCERTAINTY') ;
#60=LINE('Line',#57,#59) ;
#69=LINE('Line',#66,#68) ;
#76=LINE('Line',#73,#75) ;
#83=LINE('Line',#80,#82) ;
#100=LINE('Line',#97,#99) ;
#107=LINE('Line',#104,#106) ;
#114=LINE('Line',#111,#113) ;
#131=LINE('Line',#128,#130) ;
#140=LINE('Line',#137,#139) ;
#147=LINE('Line',#144,#146) ;
#154=LINE('Line',#151,#153) ;
#165=LINE('Line',#162,#164) ;
#172=LINE('Line',#169,#171) ;
#179=LINE('Line',#176,#178) ;
#186=LINE('Line',#183,#185) ;
#193=LINE('Line',#190,#192) ;
#200=LINE('Line',#197,#199) ;
#207=LINE('Line',#204,#206) ;
#214=LINE('Line',#211,#213) ;
#221=LINE('Line',#218,#220) ;
#228=LINE('Line',#225,#227) ;
#253=LINE('Line',#250,#252) ;
#262=LINE('Line',#259,#261) ;
#269=LINE('Line',#266,#268) ;
#276=LINE('Line',#273,#275) ;
#287=LINE('Line',#284,#286) ;
#296=LINE('Line',#293,#295) ;
#303=LINE('Line',#300,#302) ;
#310=LINE('Line',#307,#309) ;
#317=LINE('Line',#314,#316) ;
#324=LINE('Line',#321,#323) ;
#331=LINE('Line',#328,#330) ;
#338=LINE('Line',#335,#337) ;
#345=LINE('Line',#342,#344) ;
#350=LINE('Line',#347,#349) ;
#375=LINE('Line',#372,#374) ;
#392=LINE('Line',#389,#391) ;
#397=LINE('Line',#394,#396) ;
#414=LINE('Line',#411,#413) ;
#431=LINE('Line',#428,#430) ;
#460=LINE('Line',#457,#459) ;
#477=LINE('Line',#474,#476) ;
#494=LINE('Line',#491,#493) ;
#506=LINE('Line',#503,#505) ;
#523=LINE('Line',#520,#522) ;
#535=LINE('Line',#532,#534) ;
#547=LINE('Line',#544,#546) ;
#564=LINE('Line',#561,#563) ;
#2=MECHANICAL_CONTEXT(' ',#1,'mechanical') ;
#24=PERSONAL_ADDRESS(' ',' ',' ',' ',' ',' ',' ',' ',' ',' ',' ',' ',(#22),' ') ;
#56=PLANE('',#55) ;
#96=PLANE('',#95) ;
#127=PLANE('',#126) ;
#249=PLANE('',#248) ;
#371=PLANE('',#370) ;
#388=PLANE('',#387) ;
#410=PLANE('',#409) ;
#427=PLANE('',#426) ;
#444=PLANE('',#443) ;
#456=PLANE('',#455) ;
#473=PLANE('',#472) ;
#490=PLANE('',#489) ;
#519=PLANE('',#518) ;
#560=PLANE('',#559) ;
#43=PLANE_ANGLE_MEASURE_WITH_UNIT(PLANE_ANGLE_MEASURE(0.0174532925199),#42) ;
#7=PRODUCT_CATEGORY('part',$) ;
#9=PRODUCT_CATEGORY_RELATIONSHIP(' ',' ',#7,#8) ;
#6=PRODUCT_DEFINITION_FORMATION_WITH_SPECIFIED_SOURCE('',' ',#5,.NOT_KNOWN.) ;
#8=PRODUCT_RELATED_PRODUCT_CATEGORY('detail',$,(#5)) ;
#50=SHAPE_DEFINITION_REPRESENTATION(#40,#49) ;
#62=VERTEX_POINT('',#61) ;
#64=VERTEX_POINT('',#63) ;
#71=VERTEX_POINT('',#70) ;
#78=VERTEX_POINT('',#77) ;
#102=VERTEX_POINT('',#101) ;
#109=VERTEX_POINT('',#108) ;
#133=VERTEX_POINT('',#132) ;
#135=VERTEX_POINT('',#134) ;
#142=VERTEX_POINT('',#141) ;
#149=VERTEX_POINT('',#148) ;
#167=VERTEX_POINT('',#166) ;
#174=VERTEX_POINT('',#173) ;
#181=VERTEX_POINT('',#180) ;
#188=VERTEX_POINT('',#187) ;
#195=VERTEX_POINT('',#194) ;
#202=VERTEX_POINT('',#201) ;
#209=VERTEX_POINT('',#208) ;
#216=VERTEX_POINT('',#215) ;
#223=VERTEX_POINT('',#222) ;
#255=VERTEX_POINT('',#254) ;
#257=VERTEX_POINT('',#256) ;
#264=VERTEX_POINT('',#263) ;
#271=VERTEX_POINT('',#270) ;
#289=VERTEX_POINT('',#288) ;
#291=VERTEX_POINT('',#290) ;
#298=VERTEX_POINT('',#297) ;
#305=VERTEX_POINT('',#304) ;
#312=VERTEX_POINT('',#311) ;
#319=VERTEX_POINT('',#318) ;
#326=VERTEX_POINT('',#325) ;
#333=VERTEX_POINT('',#332) ;
#340=VERTEX_POINT('',#339) ;
#41=(LENGTH_UNIT()NAMED_UNIT(*)SI_UNIT(.MILLI.,.METRE.)) ;
#42=(NAMED_UNIT(*)PLANE_ANGLE_UNIT()SI_UNIT($,.RADIAN.)) ;
#44=(NAMED_UNIT(*)SI_UNIT($,.STERADIAN.)SOLID_ANGLE_UNIT()) ;
#46=(GEOMETRIC_REPRESENTATION_CONTEXT(3)GLOBAL_UNCERTAINTY_ASSIGNED_CONTEXT((#45))GLOBAL_UNIT_ASSIGNED_CONTEXT((#41,#42,#44))REPRESENTATION_CONTEXT(' ',' ')) ;
ENDSEC;
END-ISO-10303-21;
