ISO-10303-21;
HEADER;
FILE_DESCRIPTION(('CATIA V5 STEP Exchange'),'2;1');

FILE_NAME('C:\\ENTREPRISE\\LOCAL\\Eoliene\\CAO\\EOLX1.3 Rotor 3 pales Vilebrequin & Excentricite de Battement\\EOLX1.3-D-111-003_A.stp','2020-01-30T22:22:34+00:00',('none'),('none'),'CATIA Version 5 Release 21 GA (IN-10)','CATIA V5 STEP AP203','none');

FILE_SCHEMA(('CONFIG_CONTROL_DESIGN'));

ENDSEC;
/* file written by CATIA V5R21 */
DATA;
#5=PRODUCT('EOLX1.3-D-111-003_A','','',(#2)) ;
#1=APPLICATION_CONTEXT('configuration controlled 3D design of mechanical parts and assemblies') ;
#14=PRODUCT_DEFINITION('',' ',#6,#3) ;
#16=SECURITY_CLASSIFICATION(' ',' ',#15) ;
#15=SECURITY_CLASSIFICATION_LEVEL('unclassified') ;
#47=CARTESIAN_POINT(' ',(0.,0.,0.)) ;
#52=CARTESIAN_POINT('Axis2P3D Location',(0.,50.,0.)) ;
#57=CARTESIAN_POINT('Axis2P3D Location',(0.,50.,0.)) ;
#61=CARTESIAN_POINT('Vertex',(3.35597877023,50.,6.14307793323)) ;
#63=CARTESIAN_POINT('Vertex',(-3.35597877023,50.,-6.14307793323)) ;
#66=CARTESIAN_POINT('Line Origine',(3.47583515488,49.0669872981,6.36247357371)) ;
#70=CARTESIAN_POINT('Vertex',(3.59569153953,48.1339745962,6.58186921418)) ;
#73=CARTESIAN_POINT('Axis2P3D Location',(0.,48.1339745962,0.)) ;
#77=CARTESIAN_POINT('Vertex',(-3.59569153953,48.1339745962,-6.58186921418)) ;
#80=CARTESIAN_POINT('Line Origine',(-3.47583515488,49.0669872981,-6.36247357371)) ;
#92=CARTESIAN_POINT('Axis2P3D Location',(0.,50.,0.)) ;
#97=CARTESIAN_POINT('Axis2P3D Location',(0.,48.1339745962,0.)) ;
#109=CARTESIAN_POINT('Axis2P3D Location',(0.,1.,0.)) ;
#114=CARTESIAN_POINT('Axis2P3D Location',(0.,1.,0.)) ;
#118=CARTESIAN_POINT('Vertex',(3.59569153953,1.,6.58186921418)) ;
#120=CARTESIAN_POINT('Vertex',(-3.59569153953,1.,-6.58186921418)) ;
#123=CARTESIAN_POINT('Axis2P3D Location',(4.07511707814,1.,7.45945177607)) ;
#127=CARTESIAN_POINT('Vertex',(4.07511707814,-9.99200722163E-016,7.45945177607)) ;
#130=CARTESIAN_POINT('Axis2P3D Location',(0.,-9.99200722163E-016,0.)) ;
#134=CARTESIAN_POINT('Vertex',(-4.07511707814,-9.99200722163E-016,-7.45945177607)) ;
#137=CARTESIAN_POINT('Axis2P3D Location',(-4.07511707814,1.,-7.45945177607)) ;
#149=CARTESIAN_POINT('Axis2P3D Location',(0.,1.,0.)) ;
#154=CARTESIAN_POINT('Axis2P3D Location',(0.,-9.99200722163E-016,0.)) ;
#166=CARTESIAN_POINT('Axis2P3D Location',(0.,22.5,0.)) ;
#171=CARTESIAN_POINT('Axis2P3D Location',(0.,0.,0.)) ;
#175=CARTESIAN_POINT('Vertex',(5.99281923255,0.,10.9697820236)) ;
#177=CARTESIAN_POINT('Vertex',(-5.99281923255,0.,-10.9697820236)) ;
#180=CARTESIAN_POINT('Line Origine',(5.99281923255,-2.,10.9697820236)) ;
#184=CARTESIAN_POINT('Vertex',(5.99281923255,-4.,10.9697820236)) ;
#187=CARTESIAN_POINT('Axis2P3D Location',(0.,-4.,0.)) ;
#191=CARTESIAN_POINT('Vertex',(-5.99281923255,-4.,-10.9697820236)) ;
#194=CARTESIAN_POINT('Line Origine',(-5.99281923255,-2.,-10.9697820236)) ;
#206=CARTESIAN_POINT('Axis2P3D Location',(0.,0.,0.)) ;
#211=CARTESIAN_POINT('Axis2P3D Location',(0.,-4.,0.)) ;
#223=CARTESIAN_POINT('Axis2P3D Location',(0.,-5.,0.)) ;
#228=CARTESIAN_POINT('Line Origine',(5.75310646325,-4.5,10.5309907427)) ;
#232=CARTESIAN_POINT('Vertex',(5.51339369395,-5.,10.0921994617)) ;
#235=CARTESIAN_POINT('Axis2P3D Location',(0.,-5.,0.)) ;
#239=CARTESIAN_POINT('Vertex',(-5.51339369395,-5.,-10.0921994617)) ;
#242=CARTESIAN_POINT('Line Origine',(-5.75310646325,-4.5,-10.5309907427)) ;
#254=CARTESIAN_POINT('Axis2P3D Location',(0.,-5.,0.)) ;
#266=CARTESIAN_POINT('Axis2P3D Location',(0.,50.,7.)) ;
#276=CARTESIAN_POINT('Axis2P3D Location',(0.,0.,12.5)) ;
#290=CARTESIAN_POINT('Axis2P3D Location',(0.,-5.,0.)) ;
#300=CARTESIAN_POINT('Axis2P3D Location',(0.,22.5,0.)) ;
#305=CARTESIAN_POINT('Line Origine',(-3.59569153953,24.5669872981,-6.58186921418)) ;
#310=CARTESIAN_POINT('Line Origine',(3.59569153953,24.5669872981,6.58186921418)) ;
#322=CARTESIAN_POINT('Control Point',(3.,38.5,6.87386354243)) ;
#323=CARTESIAN_POINT('Control Point',(3.,39.1048757105,6.87386354243)) ;
#324=CARTESIAN_POINT('Control Point',(2.84755223955,39.7097492821,6.94039719975)) ;
#325=CARTESIAN_POINT('Control Point',(2.54606628663,40.2487211463,7.07181285552)) ;
#326=CARTESIAN_POINT('Control Point',(1.81860891442,41.0286958908,7.31232096489)) ;
#327=CARTESIAN_POINT('Control Point',(0.831877642731,41.4363150957,7.47334516142)) ;
#328=CARTESIAN_POINT('Control Point',(0.37305521428,41.5304264098,7.51281654308)) ;
#329=CARTESIAN_POINT('Control Point',(-0.436888386809,41.5348025606,7.51289125457)) ;
#330=CARTESIAN_POINT('Control Point',(-1.19289778665,41.2834222787,7.41494768264)) ;
#331=CARTESIAN_POINT('Control Point',(-1.49491543962,41.1328247638,7.35816938311)) ;
#332=CARTESIAN_POINT('Control Point',(-2.18443392385,40.661073123,7.19374923341)) ;
#333=CARTESIAN_POINT('Control Point',(-2.68037486139,39.9807662334,7.01345547242)) ;
#334=CARTESIAN_POINT('Control Point',(-2.8931457455,39.5128167685,6.9204985624)) ;
#335=CARTESIAN_POINT('Control Point',(-3.,39.0064091339,6.87386354243)) ;
#336=CARTESIAN_POINT('Control Point',(-3.,38.5,6.87386354243)) ;
#337=CARTESIAN_POINT('Vertex',(3.,38.5,6.87386354243)) ;
#339=CARTESIAN_POINT('Vertex',(-3.,38.5,6.87386354243)) ;
#343=CARTESIAN_POINT('Control Point',(-3.,38.5,6.87386354243)) ;
#344=CARTESIAN_POINT('Control Point',(-3.,37.8951242896,6.87386354243)) ;
#345=CARTESIAN_POINT('Control Point',(-2.84755223957,37.2902507179,6.94039719974)) ;
#346=CARTESIAN_POINT('Control Point',(-2.54606628658,36.7512788536,7.07181285554)) ;
#347=CARTESIAN_POINT('Control Point',(-1.81860891439,35.9713041092,7.31232096489)) ;
#348=CARTESIAN_POINT('Control Point',(-0.831877642765,35.5636849043,7.47334516141)) ;
#349=CARTESIAN_POINT('Control Point',(-0.373055214265,35.4695735902,7.51281654308)) ;
#350=CARTESIAN_POINT('Control Point',(0.43688838681,35.4651974394,7.51289125457)) ;
#351=CARTESIAN_POINT('Control Point',(1.19289778664,35.7165777213,7.41494768264)) ;
#352=CARTESIAN_POINT('Control Point',(1.49491543962,35.8671752362,7.35816938311)) ;
#353=CARTESIAN_POINT('Control Point',(2.18443392387,36.338926877,7.1937492334)) ;
#354=CARTESIAN_POINT('Control Point',(2.68037486143,37.0192337666,7.01345547241)) ;
#355=CARTESIAN_POINT('Control Point',(2.89314574547,37.4871832314,6.9204985624)) ;
#356=CARTESIAN_POINT('Control Point',(3.,37.9935908661,6.87386354243)) ;
#357=CARTESIAN_POINT('Control Point',(3.,38.5,6.87386354243)) ;
#371=CARTESIAN_POINT('Control Point',(-3.,38.5,-6.87386354243)) ;
#372=CARTESIAN_POINT('Control Point',(-3.,37.8951242896,-6.87386354243)) ;
#373=CARTESIAN_POINT('Control Point',(-2.84755223958,37.290250718,-6.94039719973)) ;
#374=CARTESIAN_POINT('Control Point',(-2.54606628655,36.7512788536,-7.07181285555)) ;
#375=CARTESIAN_POINT('Control Point',(-1.81860891437,35.9713041092,-7.31232096489)) ;
#376=CARTESIAN_POINT('Control Point',(-0.83187764274,35.5636849043,-7.47334516141)) ;
#377=CARTESIAN_POINT('Control Point',(-0.37305521429,35.4695735902,-7.51281654308)) ;
#378=CARTESIAN_POINT('Control Point',(0.436888386789,35.4651974394,-7.51289125457)) ;
#379=CARTESIAN_POINT('Control Point',(1.19289778662,35.7165777213,-7.41494768265)) ;
#380=CARTESIAN_POINT('Control Point',(1.49491543963,35.8671752362,-7.35816938311)) ;
#381=CARTESIAN_POINT('Control Point',(2.18443392389,36.338926877,-7.1937492334)) ;
#382=CARTESIAN_POINT('Control Point',(2.68037486144,37.0192337666,-7.0134554724)) ;
#383=CARTESIAN_POINT('Control Point',(2.89314574547,37.4871832314,-6.92049856241)) ;
#384=CARTESIAN_POINT('Control Point',(3.,37.9935908661,-6.87386354243)) ;
#385=CARTESIAN_POINT('Control Point',(3.,38.5,-6.87386354243)) ;
#386=CARTESIAN_POINT('Vertex',(-3.,38.5,-6.87386354243)) ;
#388=CARTESIAN_POINT('Vertex',(3.,38.5,-6.87386354243)) ;
#392=CARTESIAN_POINT('Control Point',(3.,38.5,-6.87386354243)) ;
#393=CARTESIAN_POINT('Control Point',(3.,39.1048757104,-6.87386354243)) ;
#394=CARTESIAN_POINT('Control Point',(2.84755223959,39.709749282,-6.94039719973)) ;
#395=CARTESIAN_POINT('Control Point',(2.54606628653,40.2487211464,-7.07181285555)) ;
#396=CARTESIAN_POINT('Control Point',(1.81860891435,41.0286958908,-7.3123209649)) ;
#397=CARTESIAN_POINT('Control Point',(0.831877642751,41.4363150957,-7.47334516141)) ;
#398=CARTESIAN_POINT('Control Point',(0.37305521426,41.5304264098,-7.51281654308)) ;
#399=CARTESIAN_POINT('Control Point',(-0.436888386831,41.5348025606,-7.51289125457)) ;
#400=CARTESIAN_POINT('Control Point',(-1.19289778667,41.2834222787,-7.41494768264)) ;
#401=CARTESIAN_POINT('Control Point',(-1.49491543961,41.1328247638,-7.35816938311)) ;
#402=CARTESIAN_POINT('Control Point',(-2.18443392386,40.661073123,-7.19374923341)) ;
#403=CARTESIAN_POINT('Control Point',(-2.68037486141,39.9807662334,-7.01345547242)) ;
#404=CARTESIAN_POINT('Control Point',(-2.89314574549,39.5128167686,-6.9204985624)) ;
#405=CARTESIAN_POINT('Control Point',(-3.,39.0064091339,-6.87386354243)) ;
#406=CARTESIAN_POINT('Control Point',(-3.,38.5,-6.87386354243)) ;
#413=CARTESIAN_POINT('Axis2P3D Location',(0.,38.5,0.)) ;
#418=CARTESIAN_POINT('Line Origine',(3.,38.5,0.)) ;
#423=CARTESIAN_POINT('Line Origine',(-3.,38.5,0.)) ;
#53=DIRECTION('Axis2P3D Direction',(-0.,-1.,-0.)) ;
#54=DIRECTION('Axis2P3D XDirection',(0.479425538604,0.,0.87758256189)) ;
#58=DIRECTION('Axis2P3D Direction',(0.,-1.,-0.)) ;
#67=DIRECTION('Vector Direction',(0.124084460099,-0.965925826289,0.227135080667)) ;
#74=DIRECTION('Axis2P3D Direction',(0.,-1.,-0.)) ;
#81=DIRECTION('Vector Direction',(-0.124084460099,-0.965925826289,-0.227135080667)) ;
#93=DIRECTION('Axis2P3D Direction',(0.,-1.,-0.)) ;
#98=DIRECTION('Axis2P3D Direction',(0.,-1.,-0.)) ;
#110=DIRECTION('Axis2P3D Direction',(0.,1.,0.)) ;
#111=DIRECTION('Axis2P3D XDirection',(0.479425538604,0.,0.87758256189)) ;
#115=DIRECTION('Axis2P3D Direction',(0.,1.,0.)) ;
#124=DIRECTION('Axis2P3D Direction',(-0.87758256189,0.,0.479425538604)) ;
#131=DIRECTION('Axis2P3D Direction',(0.,1.,0.)) ;
#138=DIRECTION('Axis2P3D Direction',(0.87758256189,0.,-0.479425538604)) ;
#150=DIRECTION('Axis2P3D Direction',(0.,1.,0.)) ;
#155=DIRECTION('Axis2P3D Direction',(0.,1.,0.)) ;
#167=DIRECTION('Axis2P3D Direction',(0.,1.,0.)) ;
#168=DIRECTION('Axis2P3D XDirection',(0.479425538604,-0.,0.87758256189)) ;
#172=DIRECTION('Axis2P3D Direction',(0.,1.,0.)) ;
#181=DIRECTION('Vector Direction',(0.,1.,0.)) ;
#188=DIRECTION('Axis2P3D Direction',(0.,1.,0.)) ;
#195=DIRECTION('Vector Direction',(0.,1.,0.)) ;
#207=DIRECTION('Axis2P3D Direction',(0.,1.,0.)) ;
#212=DIRECTION('Axis2P3D Direction',(0.,1.,0.)) ;
#224=DIRECTION('Axis2P3D Direction',(0.,1.,0.)) ;
#225=DIRECTION('Axis2P3D XDirection',(0.479425538604,0.,0.87758256189)) ;
#229=DIRECTION('Vector Direction',(0.339005049421,0.707106781187,0.620544580564)) ;
#236=DIRECTION('Axis2P3D Direction',(0.,1.,0.)) ;
#243=DIRECTION('Vector Direction',(-0.339005049421,0.707106781187,-0.620544580564)) ;
#255=DIRECTION('Axis2P3D Direction',(0.,1.,0.)) ;
#267=DIRECTION('Axis2P3D Direction',(0.,1.,0.)) ;
#268=DIRECTION('Axis2P3D XDirection',(1.,-0.,0.)) ;
#277=DIRECTION('Axis2P3D Direction',(0.,1.,0.)) ;
#278=DIRECTION('Axis2P3D XDirection',(1.,-0.,0.)) ;
#291=DIRECTION('Axis2P3D Direction',(0.,1.,0.)) ;
#292=DIRECTION('Axis2P3D XDirection',(1.,-0.,0.)) ;
#301=DIRECTION('Axis2P3D Direction',(0.,1.,0.)) ;
#302=DIRECTION('Axis2P3D XDirection',(0.479425538604,-0.,0.87758256189)) ;
#306=DIRECTION('Vector Direction',(0.,1.,0.)) ;
#311=DIRECTION('Vector Direction',(0.,1.,0.)) ;
#414=DIRECTION('Axis2P3D Direction',(0.,0.,1.)) ;
#415=DIRECTION('Axis2P3D XDirection',(1.,0.,0.)) ;
#419=DIRECTION('Vector Direction',(0.,0.,1.)) ;
#424=DIRECTION('Vector Direction',(0.,0.,1.)) ;
#48=AXIS2_PLACEMENT_3D(' ',#47,$,$) ;
#55=AXIS2_PLACEMENT_3D('Cone Axis2P3D',#52,#53,#54) ;
#59=AXIS2_PLACEMENT_3D('Circle Axis2P3D',#57,#58,$) ;
#75=AXIS2_PLACEMENT_3D('Circle Axis2P3D',#73,#74,$) ;
#94=AXIS2_PLACEMENT_3D('Circle Axis2P3D',#92,#93,$) ;
#99=AXIS2_PLACEMENT_3D('Circle Axis2P3D',#97,#98,$) ;
#112=AXIS2_PLACEMENT_3D('Torus Axis2P3D',#109,#110,#111) ;
#116=AXIS2_PLACEMENT_3D('Circle Axis2P3D',#114,#115,$) ;
#125=AXIS2_PLACEMENT_3D('Circle Axis2P3D',#123,#124,$) ;
#132=AXIS2_PLACEMENT_3D('Circle Axis2P3D',#130,#131,$) ;
#139=AXIS2_PLACEMENT_3D('Circle Axis2P3D',#137,#138,$) ;
#151=AXIS2_PLACEMENT_3D('Circle Axis2P3D',#149,#150,$) ;
#156=AXIS2_PLACEMENT_3D('Circle Axis2P3D',#154,#155,$) ;
#169=AXIS2_PLACEMENT_3D('Cylinder Axis2P3D',#166,#167,#168) ;
#173=AXIS2_PLACEMENT_3D('Circle Axis2P3D',#171,#172,$) ;
#189=AXIS2_PLACEMENT_3D('Circle Axis2P3D',#187,#188,$) ;
#208=AXIS2_PLACEMENT_3D('Circle Axis2P3D',#206,#207,$) ;
#213=AXIS2_PLACEMENT_3D('Circle Axis2P3D',#211,#212,$) ;
#226=AXIS2_PLACEMENT_3D('Cone Axis2P3D',#223,#224,#225) ;
#237=AXIS2_PLACEMENT_3D('Circle Axis2P3D',#235,#236,$) ;
#256=AXIS2_PLACEMENT_3D('Circle Axis2P3D',#254,#255,$) ;
#269=AXIS2_PLACEMENT_3D('Plane Axis2P3D',#266,#267,#268) ;
#279=AXIS2_PLACEMENT_3D('Plane Axis2P3D',#276,#277,#278) ;
#293=AXIS2_PLACEMENT_3D('Plane Axis2P3D',#290,#291,#292) ;
#303=AXIS2_PLACEMENT_3D('Cylinder Axis2P3D',#300,#301,#302) ;
#416=AXIS2_PLACEMENT_3D('Cylinder Axis2P3D',#413,#414,#415) ;
#40=PRODUCT_DEFINITION_SHAPE(' ',' ',#14) ;
#31=APPROVAL_PERSON_ORGANIZATION(#25,#21,#19) ;
#25=PERSON_AND_ORGANIZATION(#22,#23) ;
#22=PERSON(' ',' ',' ',$,$,$) ;
#23=ORGANIZATION(' ',' ',' ') ;
#21=APPROVAL(#20,' ') ;
#20=APPROVAL_STATUS('not_yet_approved') ;
#19=APPROVAL_ROLE('APPROVER') ;
#13=DATE_AND_TIME(#11,#12) ;
#12=LOCAL_TIME(23,22,34.,#10) ;
#10=COORDINATED_UNIVERSAL_TIME_OFFSET(0,0,.AHEAD.) ;
#86=ORIENTED_EDGE('',*,*,#65,.F.) ;
#87=ORIENTED_EDGE('',*,*,#72,.T.) ;
#88=ORIENTED_EDGE('',*,*,#79,.T.) ;
#89=ORIENTED_EDGE('',*,*,#84,.F.) ;
#103=ORIENTED_EDGE('',*,*,#96,.F.) ;
#104=ORIENTED_EDGE('',*,*,#84,.T.) ;
#105=ORIENTED_EDGE('',*,*,#101,.T.) ;
#106=ORIENTED_EDGE('',*,*,#72,.F.) ;
#143=ORIENTED_EDGE('',*,*,#122,.F.) ;
#144=ORIENTED_EDGE('',*,*,#129,.T.) ;
#145=ORIENTED_EDGE('',*,*,#136,.T.) ;
#146=ORIENTED_EDGE('',*,*,#141,.F.) ;
#160=ORIENTED_EDGE('',*,*,#153,.F.) ;
#161=ORIENTED_EDGE('',*,*,#141,.T.) ;
#162=ORIENTED_EDGE('',*,*,#158,.T.) ;
#163=ORIENTED_EDGE('',*,*,#129,.F.) ;
#200=ORIENTED_EDGE('',*,*,#179,.F.) ;
#201=ORIENTED_EDGE('',*,*,#186,.T.) ;
#202=ORIENTED_EDGE('',*,*,#193,.T.) ;
#203=ORIENTED_EDGE('',*,*,#198,.F.) ;
#217=ORIENTED_EDGE('',*,*,#210,.F.) ;
#218=ORIENTED_EDGE('',*,*,#198,.T.) ;
#219=ORIENTED_EDGE('',*,*,#215,.T.) ;
#220=ORIENTED_EDGE('',*,*,#186,.F.) ;
#248=ORIENTED_EDGE('',*,*,#193,.F.) ;
#249=ORIENTED_EDGE('',*,*,#234,.T.) ;
#250=ORIENTED_EDGE('',*,*,#241,.T.) ;
#251=ORIENTED_EDGE('',*,*,#246,.F.) ;
#260=ORIENTED_EDGE('',*,*,#215,.F.) ;
#261=ORIENTED_EDGE('',*,*,#246,.T.) ;
#262=ORIENTED_EDGE('',*,*,#258,.T.) ;
#263=ORIENTED_EDGE('',*,*,#234,.F.) ;
#272=ORIENTED_EDGE('',*,*,#65,.T.) ;
#273=ORIENTED_EDGE('',*,*,#96,.T.) ;
#282=ORIENTED_EDGE('',*,*,#210,.T.) ;
#283=ORIENTED_EDGE('',*,*,#179,.T.) ;
#286=ORIENTED_EDGE('',*,*,#136,.F.) ;
#287=ORIENTED_EDGE('',*,*,#158,.F.) ;
#296=ORIENTED_EDGE('',*,*,#241,.F.) ;
#297=ORIENTED_EDGE('',*,*,#258,.F.) ;
#316=ORIENTED_EDGE('',*,*,#101,.F.) ;
#317=ORIENTED_EDGE('',*,*,#309,.T.) ;
#318=ORIENTED_EDGE('',*,*,#153,.T.) ;
#319=ORIENTED_EDGE('',*,*,#314,.F.) ;
#360=ORIENTED_EDGE('',*,*,#341,.F.) ;
#361=ORIENTED_EDGE('',*,*,#358,.F.) ;
#365=ORIENTED_EDGE('',*,*,#79,.F.) ;
#366=ORIENTED_EDGE('',*,*,#314,.T.) ;
#367=ORIENTED_EDGE('',*,*,#122,.T.) ;
#368=ORIENTED_EDGE('',*,*,#309,.F.) ;
#409=ORIENTED_EDGE('',*,*,#390,.T.) ;
#410=ORIENTED_EDGE('',*,*,#407,.T.) ;
#429=ORIENTED_EDGE('',*,*,#422,.T.) ;
#430=ORIENTED_EDGE('',*,*,#390,.F.) ;
#431=ORIENTED_EDGE('',*,*,#427,.F.) ;
#432=ORIENTED_EDGE('',*,*,#358,.T.) ;
#436=ORIENTED_EDGE('',*,*,#427,.T.) ;
#437=ORIENTED_EDGE('',*,*,#407,.F.) ;
#438=ORIENTED_EDGE('',*,*,#422,.F.) ;
#439=ORIENTED_EDGE('',*,*,#341,.T.) ;
#288=FACE_BOUND('',#285,.T.) ;
#362=FACE_BOUND('',#359,.T.) ;
#411=FACE_BOUND('',#408,.T.) ;
#51=CLOSED_SHELL('Closed Shell',(#91,#108,#148,#165,#205,#222,#253,#265,#275,#289,#299,#363,#412,#434,#441)) ;
#68=VECTOR('Line Direction',#67,1.) ;
#82=VECTOR('Line Direction',#81,1.) ;
#182=VECTOR('Line Direction',#181,1.) ;
#196=VECTOR('Line Direction',#195,1.) ;
#230=VECTOR('Line Direction',#229,1.) ;
#244=VECTOR('Line Direction',#243,1.) ;
#307=VECTOR('Line Direction',#306,1.) ;
#312=VECTOR('Line Direction',#311,1.) ;
#420=VECTOR('Line Direction',#419,1.) ;
#425=VECTOR('Line Direction',#424,1.) ;
#443=ADVANCED_BREP_SHAPE_REPRESENTATION('NONE',(#442),#46) ;
#49=SHAPE_REPRESENTATION(' ',(#48),#46) ;
#91=ADVANCED_FACE('PartBody',(#90),#56,.T.) ;
#108=ADVANCED_FACE('PartBody',(#107),#56,.T.) ;
#148=ADVANCED_FACE('PartBody',(#147),#113,.F.) ;
#165=ADVANCED_FACE('PartBody',(#164),#113,.F.) ;
#205=ADVANCED_FACE('PartBody',(#204),#170,.T.) ;
#222=ADVANCED_FACE('PartBody',(#221),#170,.T.) ;
#253=ADVANCED_FACE('PartBody',(#252),#227,.T.) ;
#265=ADVANCED_FACE('PartBody',(#264),#227,.T.) ;
#275=ADVANCED_FACE('PartBody',(#274),#270,.T.) ;
#289=ADVANCED_FACE('PartBody',(#284,#288),#280,.T.) ;
#299=ADVANCED_FACE('PartBody',(#298),#294,.F.) ;
#363=ADVANCED_FACE('PartBody',(#320,#362),#304,.T.) ;
#412=ADVANCED_FACE('PartBody',(#369,#411),#304,.T.) ;
#434=ADVANCED_FACE('PartBody',(#433),#417,.F.) ;
#441=ADVANCED_FACE('PartBody',(#440),#417,.F.) ;
#4=APPLICATION_PROTOCOL_DEFINITION('international standard','config_control_design',1994,#1) ;
#32=APPROVAL_DATE_TIME(#13,#21) ;
#321=B_SPLINE_CURVE_WITH_KNOTS('',5,(#322,#323,#324,#325,#326,#327,#328,#329,#330,#331,#332,#333,#334,#335,#336),.UNSPECIFIED.,.F.,.U.,(6,3,3,3,6),(0.,4.2771171666,7.50491447928,9.89076543982,13.4716187658),.UNSPECIFIED.) ;
#342=B_SPLINE_CURVE_WITH_KNOTS('',5,(#343,#344,#345,#346,#347,#348,#349,#350,#351,#352,#353,#354,#355,#356,#357),.UNSPECIFIED.,.F.,.U.,(6,3,3,3,6),(0.,4.27711716628,7.50491447887,9.89076543939,13.4716187657),.UNSPECIFIED.) ;
#370=B_SPLINE_CURVE_WITH_KNOTS('',5,(#371,#372,#373,#374,#375,#376,#377,#378,#379,#380,#381,#382,#383,#384,#385),.UNSPECIFIED.,.F.,.U.,(6,3,3,3,6),(0.,4.27711716616,7.50491447883,9.8907654393,13.4716187657),.UNSPECIFIED.) ;
#391=B_SPLINE_CURVE_WITH_KNOTS('',5,(#392,#393,#394,#395,#396,#397,#398,#399,#400,#401,#402,#403,#404,#405,#406),.UNSPECIFIED.,.F.,.U.,(6,3,3,3,6),(0.,4.27711716605,7.50491447865,9.89076543927,13.4716187654),.UNSPECIFIED.) ;
#442=MANIFOLD_SOLID_BREP('PartBody',#51) ;
#11=CALENDAR_DATE(2020,30,1) ;
#30=CC_DESIGN_APPROVAL(#21,(#16,#6,#14)) ;
#18=CC_DESIGN_DATE_AND_TIME_ASSIGNMENT(#13,#17,(#16)) ;
#29=CC_DESIGN_DATE_AND_TIME_ASSIGNMENT(#13,#28,(#14)) ;
#17=DATE_TIME_ROLE('classification_date') ;
#28=DATE_TIME_ROLE('creation_date') ;
#27=CC_DESIGN_PERSON_AND_ORGANIZATION_ASSIGNMENT(#25,#26,(#16)) ;
#33=CC_DESIGN_PERSON_AND_ORGANIZATION_ASSIGNMENT(#25,#34,(#6)) ;
#35=CC_DESIGN_PERSON_AND_ORGANIZATION_ASSIGNMENT(#25,#36,(#6,#14)) ;
#37=CC_DESIGN_PERSON_AND_ORGANIZATION_ASSIGNMENT(#25,#38,(#5)) ;
#26=PERSON_AND_ORGANIZATION_ROLE('classification_officer') ;
#34=PERSON_AND_ORGANIZATION_ROLE('design_supplier') ;
#36=PERSON_AND_ORGANIZATION_ROLE('creator') ;
#38=PERSON_AND_ORGANIZATION_ROLE('design_owner') ;
#39=CC_DESIGN_SECURITY_CLASSIFICATION(#16,(#6)) ;
#60=CIRCLE('generated circle',#59,7.) ;
#76=CIRCLE('generated circle',#75,7.5) ;
#95=CIRCLE('generated circle',#94,7.) ;
#100=CIRCLE('generated circle',#99,7.5) ;
#117=CIRCLE('generated circle',#116,7.5) ;
#126=CIRCLE('generated circle',#125,1.) ;
#133=CIRCLE('generated circle',#132,8.5) ;
#140=CIRCLE('generated circle',#139,1.) ;
#152=CIRCLE('generated circle',#151,7.5) ;
#157=CIRCLE('generated circle',#156,8.5) ;
#174=CIRCLE('generated circle',#173,12.5) ;
#190=CIRCLE('generated circle',#189,12.5) ;
#209=CIRCLE('generated circle',#208,12.5) ;
#214=CIRCLE('generated circle',#213,12.5) ;
#238=CIRCLE('generated circle',#237,11.5) ;
#257=CIRCLE('generated circle',#256,11.5) ;
#56=CONICAL_SURFACE('Cone',#55,7.,0.261799387799) ;
#227=CONICAL_SURFACE('Cone',#226,11.5,0.785398163397) ;
#444=SHAPE_REPRESENTATION_RELATIONSHIP(' ',' ',#49,#443) ;
#170=CYLINDRICAL_SURFACE('generated cylinder',#169,12.5) ;
#304=CYLINDRICAL_SURFACE('generated cylinder',#303,7.5) ;
#417=CYLINDRICAL_SURFACE('generated cylinder',#416,3.) ;
#113=TOROIDAL_SURFACE('homeo Torus',#112,8.5,1.) ;
#3=DESIGN_CONTEXT(' ',#1,'design') ;
#65=EDGE_CURVE('',#62,#64,#60,.F.) ;
#72=EDGE_CURVE('',#62,#71,#69,.T.) ;
#79=EDGE_CURVE('',#71,#78,#76,.F.) ;
#84=EDGE_CURVE('',#64,#78,#83,.T.) ;
#96=EDGE_CURVE('',#64,#62,#95,.F.) ;
#101=EDGE_CURVE('',#78,#71,#100,.F.) ;
#122=EDGE_CURVE('',#119,#121,#117,.T.) ;
#129=EDGE_CURVE('',#119,#128,#126,.T.) ;
#136=EDGE_CURVE('',#128,#135,#133,.T.) ;
#141=EDGE_CURVE('',#121,#135,#140,.T.) ;
#153=EDGE_CURVE('',#121,#119,#152,.T.) ;
#158=EDGE_CURVE('',#135,#128,#157,.T.) ;
#179=EDGE_CURVE('',#176,#178,#174,.T.) ;
#186=EDGE_CURVE('',#176,#185,#183,.F.) ;
#193=EDGE_CURVE('',#185,#192,#190,.T.) ;
#198=EDGE_CURVE('',#178,#192,#197,.F.) ;
#210=EDGE_CURVE('',#178,#176,#209,.T.) ;
#215=EDGE_CURVE('',#192,#185,#214,.T.) ;
#234=EDGE_CURVE('',#185,#233,#231,.F.) ;
#241=EDGE_CURVE('',#233,#240,#238,.T.) ;
#246=EDGE_CURVE('',#192,#240,#245,.F.) ;
#258=EDGE_CURVE('',#240,#233,#257,.T.) ;
#309=EDGE_CURVE('',#78,#121,#308,.F.) ;
#314=EDGE_CURVE('',#71,#119,#313,.F.) ;
#341=EDGE_CURVE('',#338,#340,#321,.T.) ;
#358=EDGE_CURVE('',#340,#338,#342,.T.) ;
#390=EDGE_CURVE('',#387,#389,#370,.T.) ;
#407=EDGE_CURVE('',#389,#387,#391,.T.) ;
#422=EDGE_CURVE('',#338,#389,#421,.F.) ;
#427=EDGE_CURVE('',#340,#387,#426,.F.) ;
#85=EDGE_LOOP('',(#86,#87,#88,#89)) ;
#102=EDGE_LOOP('',(#103,#104,#105,#106)) ;
#142=EDGE_LOOP('',(#143,#144,#145,#146)) ;
#159=EDGE_LOOP('',(#160,#161,#162,#163)) ;
#199=EDGE_LOOP('',(#200,#201,#202,#203)) ;
#216=EDGE_LOOP('',(#217,#218,#219,#220)) ;
#247=EDGE_LOOP('',(#248,#249,#250,#251)) ;
#259=EDGE_LOOP('',(#260,#261,#262,#263)) ;
#271=EDGE_LOOP('',(#272,#273)) ;
#281=EDGE_LOOP('',(#282,#283)) ;
#285=EDGE_LOOP('',(#286,#287)) ;
#295=EDGE_LOOP('',(#296,#297)) ;
#315=EDGE_LOOP('',(#316,#317,#318,#319)) ;
#359=EDGE_LOOP('',(#360,#361)) ;
#364=EDGE_LOOP('',(#365,#366,#367,#368)) ;
#408=EDGE_LOOP('',(#409,#410)) ;
#428=EDGE_LOOP('',(#429,#430,#431,#432)) ;
#435=EDGE_LOOP('',(#436,#437,#438,#439)) ;
#90=FACE_OUTER_BOUND('',#85,.T.) ;
#107=FACE_OUTER_BOUND('',#102,.T.) ;
#147=FACE_OUTER_BOUND('',#142,.T.) ;
#164=FACE_OUTER_BOUND('',#159,.T.) ;
#204=FACE_OUTER_BOUND('',#199,.T.) ;
#221=FACE_OUTER_BOUND('',#216,.T.) ;
#252=FACE_OUTER_BOUND('',#247,.T.) ;
#264=FACE_OUTER_BOUND('',#259,.T.) ;
#274=FACE_OUTER_BOUND('',#271,.T.) ;
#284=FACE_OUTER_BOUND('',#281,.T.) ;
#298=FACE_OUTER_BOUND('',#295,.T.) ;
#320=FACE_OUTER_BOUND('',#315,.T.) ;
#369=FACE_OUTER_BOUND('',#364,.T.) ;
#433=FACE_OUTER_BOUND('',#428,.T.) ;
#440=FACE_OUTER_BOUND('',#435,.T.) ;
#45=UNCERTAINTY_MEASURE_WITH_UNIT(LENGTH_MEASURE(0.005),#41,'distance_accuracy_value','CONFUSED CURVE UNCERTAINTY') ;
#69=LINE('Line',#66,#68) ;
#83=LINE('Line',#80,#82) ;
#183=LINE('Line',#180,#182) ;
#197=LINE('Line',#194,#196) ;
#231=LINE('Line',#228,#230) ;
#245=LINE('Line',#242,#244) ;
#308=LINE('Line',#305,#307) ;
#313=LINE('Line',#310,#312) ;
#421=LINE('Line',#418,#420) ;
#426=LINE('Line',#423,#425) ;
#2=MECHANICAL_CONTEXT(' ',#1,'mechanical') ;
#24=PERSONAL_ADDRESS(' ',' ',' ',' ',' ',' ',' ',' ',' ',' ',' ',' ',(#22),' ') ;
#270=PLANE('',#269) ;
#280=PLANE('',#279) ;
#294=PLANE('',#293) ;
#43=PLANE_ANGLE_MEASURE_WITH_UNIT(PLANE_ANGLE_MEASURE(0.0174532925199),#42) ;
#7=PRODUCT_CATEGORY('part',$) ;
#9=PRODUCT_CATEGORY_RELATIONSHIP(' ',' ',#7,#8) ;
#6=PRODUCT_DEFINITION_FORMATION_WITH_SPECIFIED_SOURCE('',' ',#5,.NOT_KNOWN.) ;
#8=PRODUCT_RELATED_PRODUCT_CATEGORY('detail',$,(#5)) ;
#50=SHAPE_DEFINITION_REPRESENTATION(#40,#49) ;
#62=VERTEX_POINT('',#61) ;
#64=VERTEX_POINT('',#63) ;
#71=VERTEX_POINT('',#70) ;
#78=VERTEX_POINT('',#77) ;
#119=VERTEX_POINT('',#118) ;
#121=VERTEX_POINT('',#120) ;
#128=VERTEX_POINT('',#127) ;
#135=VERTEX_POINT('',#134) ;
#176=VERTEX_POINT('',#175) ;
#178=VERTEX_POINT('',#177) ;
#185=VERTEX_POINT('',#184) ;
#192=VERTEX_POINT('',#191) ;
#233=VERTEX_POINT('',#232) ;
#240=VERTEX_POINT('',#239) ;
#338=VERTEX_POINT('',#337) ;
#340=VERTEX_POINT('',#339) ;
#387=VERTEX_POINT('',#386) ;
#389=VERTEX_POINT('',#388) ;
#41=(LENGTH_UNIT()NAMED_UNIT(*)SI_UNIT(.MILLI.,.METRE.)) ;
#42=(NAMED_UNIT(*)PLANE_ANGLE_UNIT()SI_UNIT($,.RADIAN.)) ;
#44=(NAMED_UNIT(*)SI_UNIT($,.STERADIAN.)SOLID_ANGLE_UNIT()) ;
#46=(GEOMETRIC_REPRESENTATION_CONTEXT(3)GLOBAL_UNCERTAINTY_ASSIGNED_CONTEXT((#45))GLOBAL_UNIT_ASSIGNED_CONTEXT((#41,#42,#44))REPRESENTATION_CONTEXT(' ',' ')) ;
ENDSEC;
END-ISO-10303-21;
