ISO-10303-21;
HEADER;
FILE_DESCRIPTION(('CATIA V5 STEP Exchange'),'2;1');

FILE_NAME('C:\\Users\\flof5\\OneDrive\\Documents\\Simulafoot\\Nouvelle vague\\Prototypes\\Bordures.stp','2020-06-06T15:22:49+00:00',('none'),('none'),'CATIA Version 5 Release 21 GA (IN-10)','CATIA V5 STEP AP203','none');

FILE_SCHEMA(('CONFIG_CONTROL_DESIGN'));

ENDSEC;
/* file written by CATIA V5R21 */
DATA;
#5=PRODUCT('Part9','','',(#2)) ;
#1=APPLICATION_CONTEXT('configuration controlled 3D design of mechanical parts and assemblies') ;
#14=PRODUCT_DEFINITION('',' ',#6,#3) ;
#16=SECURITY_CLASSIFICATION(' ',' ',#15) ;
#15=SECURITY_CLASSIFICATION_LEVEL('unclassified') ;
#47=CARTESIAN_POINT(' ',(0.,0.,0.)) ;
#52=CARTESIAN_POINT('Axis2P3D Location',(109.,618.178443909,6.)) ;
#57=CARTESIAN_POINT('Line Origine',(-665.,6.17844390869,6.)) ;
#61=CARTESIAN_POINT('Vertex',(-644.,6.17844390869,6.)) ;
#63=CARTESIAN_POINT('Vertex',(-686.,6.17844390869,6.)) ;
#66=CARTESIAN_POINT('Line Origine',(-644.,-27.8215560913,6.)) ;
#70=CARTESIAN_POINT('Vertex',(-644.,-61.8215560913,6.)) ;
#73=CARTESIAN_POINT('Line Origine',(-665.,-61.8215560913,6.)) ;
#77=CARTESIAN_POINT('Vertex',(-686.,-61.8215560913,6.)) ;
#80=CARTESIAN_POINT('Line Origine',(-686.,-27.8215560913,6.)) ;
#92=CARTESIAN_POINT('Axis2P3D Location',(-686.,-61.8215560913,6.)) ;
#97=CARTESIAN_POINT('Line Origine',(-686.,-61.8215560913,3.)) ;
#101=CARTESIAN_POINT('Vertex',(-686.,-61.8215560913,0.)) ;
#104=CARTESIAN_POINT('Line Origine',(-686.,-27.8215560913,7.81597009336E-014)) ;
#108=CARTESIAN_POINT('Vertex',(-686.,6.17844390869,7.81597009336E-014)) ;
#111=CARTESIAN_POINT('Line Origine',(-686.,6.17844390869,3.)) ;
#123=CARTESIAN_POINT('Axis2P3D Location',(187.5,-61.8215560913,0.)) ;
#128=CARTESIAN_POINT('Line Origine',(-644.,-61.8215560913,3.)) ;
#132=CARTESIAN_POINT('Vertex',(-644.,-61.8215560913,0.)) ;
#135=CARTESIAN_POINT('Line Origine',(-228.25,-61.8215560913,0.)) ;
#139=CARTESIAN_POINT('Vertex',(187.5,-61.8215560913,0.)) ;
#142=CARTESIAN_POINT('Line Origine',(187.5,-61.8215560913,20.)) ;
#146=CARTESIAN_POINT('Vertex',(187.5,-61.8215560913,40.)) ;
#149=CARTESIAN_POINT('Line Origine',(-288.5,-61.8215560913,40.)) ;
#153=CARTESIAN_POINT('Vertex',(-764.5,-61.8215560913,40.)) ;
#156=CARTESIAN_POINT('Line Origine',(-764.5,-61.8215560913,20.)) ;
#160=CARTESIAN_POINT('Vertex',(-764.5,-61.8215560913,0.)) ;
#163=CARTESIAN_POINT('Line Origine',(-725.25,-61.8215560913,0.)) ;
#179=CARTESIAN_POINT('Axis2P3D Location',(0.,0.,0.)) ;
#184=CARTESIAN_POINT('Line Origine',(-764.5,278.178443909,0.)) ;
#188=CARTESIAN_POINT('Vertex',(-764.5,618.178443909,0.)) ;
#191=CARTESIAN_POINT('Line Origine',(-348.75,618.178443909,0.)) ;
#195=CARTESIAN_POINT('Vertex',(67.,618.178443909,0.)) ;
#198=CARTESIAN_POINT('Line Origine',(67.,584.178443909,0.)) ;
#202=CARTESIAN_POINT('Vertex',(67.,550.178443909,0.)) ;
#205=CARTESIAN_POINT('Line Origine',(-328.75,550.178443909,0.)) ;
#209=CARTESIAN_POINT('Vertex',(-724.5,550.178443909,0.)) ;
#212=CARTESIAN_POINT('Line Origine',(-724.5,278.178443909,0.)) ;
#216=CARTESIAN_POINT('Vertex',(-724.5,6.17844390869,0.)) ;
#219=CARTESIAN_POINT('Line Origine',(-705.25,6.17844390869,0.)) ;
#235=CARTESIAN_POINT('Axis2P3D Location',(187.5,-61.8215560913,0.)) ;
#240=CARTESIAN_POINT('Line Origine',(187.5,278.178443909,0.)) ;
#244=CARTESIAN_POINT('Vertex',(187.5,618.178443909,0.)) ;
#247=CARTESIAN_POINT('Line Origine',(187.5,618.178443909,20.)) ;
#251=CARTESIAN_POINT('Vertex',(187.5,618.178443909,40.)) ;
#254=CARTESIAN_POINT('Line Origine',(187.5,278.178443909,40.)) ;
#266=CARTESIAN_POINT('Line Origine',(-644.,-27.8215560913,0.)) ;
#270=CARTESIAN_POINT('Vertex',(-644.,6.17844390869,0.)) ;
#273=CARTESIAN_POINT('Line Origine',(-248.25,6.17844390869,0.)) ;
#277=CARTESIAN_POINT('Vertex',(147.5,6.17844390869,0.)) ;
#280=CARTESIAN_POINT('Line Origine',(147.5,278.178443909,0.)) ;
#284=CARTESIAN_POINT('Vertex',(147.5,550.178443909,0.)) ;
#287=CARTESIAN_POINT('Line Origine',(128.25,550.178443909,0.)) ;
#291=CARTESIAN_POINT('Vertex',(109.,550.178443909,2.84217094304E-014)) ;
#294=CARTESIAN_POINT('Line Origine',(109.,584.178443909,0.)) ;
#298=CARTESIAN_POINT('Vertex',(109.,618.178443909,1.24344978758E-014)) ;
#301=CARTESIAN_POINT('Line Origine',(148.25,618.178443909,0.)) ;
#317=CARTESIAN_POINT('Axis2P3D Location',(-724.5,550.178443909,0.)) ;
#322=CARTESIAN_POINT('Line Origine',(-724.5,278.178443909,40.)) ;
#326=CARTESIAN_POINT('Vertex',(-724.5,550.178443909,40.)) ;
#328=CARTESIAN_POINT('Vertex',(-724.5,6.17844390869,40.)) ;
#331=CARTESIAN_POINT('Line Origine',(-724.5,6.17844390869,20.)) ;
#336=CARTESIAN_POINT('Line Origine',(-724.5,550.178443909,20.)) ;
#348=CARTESIAN_POINT('Axis2P3D Location',(-724.5,550.178443909,0.)) ;
#353=CARTESIAN_POINT('Line Origine',(147.5,550.178443909,20.)) ;
#357=CARTESIAN_POINT('Vertex',(147.5,550.178443909,40.)) ;
#360=CARTESIAN_POINT('Line Origine',(-288.5,550.178443909,40.)) ;
#365=CARTESIAN_POINT('Line Origine',(67.,550.178443909,3.)) ;
#369=CARTESIAN_POINT('Vertex',(67.,550.178443909,6.)) ;
#372=CARTESIAN_POINT('Line Origine',(88.,550.178443909,6.)) ;
#376=CARTESIAN_POINT('Vertex',(109.,550.178443909,6.)) ;
#379=CARTESIAN_POINT('Line Origine',(109.,550.178443909,3.)) ;
#395=CARTESIAN_POINT('Axis2P3D Location',(67.,618.178443909,0.)) ;
#400=CARTESIAN_POINT('Line Origine',(67.,618.178443909,3.)) ;
#404=CARTESIAN_POINT('Vertex',(67.,618.178443909,6.)) ;
#407=CARTESIAN_POINT('Line Origine',(67.,584.178443909,6.)) ;
#419=CARTESIAN_POINT('Axis2P3D Location',(147.5,6.17844390869,0.)) ;
#424=CARTESIAN_POINT('Line Origine',(147.5,278.178443909,40.)) ;
#428=CARTESIAN_POINT('Vertex',(147.5,6.17844390869,40.)) ;
#431=CARTESIAN_POINT('Line Origine',(147.5,6.17844390869,20.)) ;
#443=CARTESIAN_POINT('Line Origine',(88.,618.178443909,6.)) ;
#447=CARTESIAN_POINT('Vertex',(109.,618.178443909,6.)) ;
#450=CARTESIAN_POINT('Line Origine',(109.,584.178443909,6.)) ;
#462=CARTESIAN_POINT('Axis2P3D Location',(109.,618.178443909,6.)) ;
#467=CARTESIAN_POINT('Line Origine',(109.,618.178443909,3.)) ;
#479=CARTESIAN_POINT('Axis2P3D Location',(-764.5,618.178443909,0.)) ;
#484=CARTESIAN_POINT('Line Origine',(-764.5,618.178443909,20.)) ;
#488=CARTESIAN_POINT('Vertex',(-764.5,618.178443909,40.)) ;
#491=CARTESIAN_POINT('Line Origine',(-288.5,618.178443909,40.)) ;
#507=CARTESIAN_POINT('Axis2P3D Location',(0.,0.,40.)) ;
#512=CARTESIAN_POINT('Line Origine',(-764.5,278.178443909,40.)) ;
#523=CARTESIAN_POINT('Line Origine',(-288.5,6.17844390869,40.)) ;
#535=CARTESIAN_POINT('Axis2P3D Location',(-764.5,618.178443909,0.)) ;
#547=CARTESIAN_POINT('Axis2P3D Location',(147.5,6.17844390869,0.)) ;
#552=CARTESIAN_POINT('Line Origine',(-644.,6.17844390869,3.)) ;
#568=CARTESIAN_POINT('Axis2P3D Location',(-644.,-61.8215560913,0.)) ;
#53=DIRECTION('Axis2P3D Direction',(0.,0.,1.)) ;
#54=DIRECTION('Axis2P3D XDirection',(-1.,0.,0.)) ;
#58=DIRECTION('Vector Direction',(-1.,0.,0.)) ;
#67=DIRECTION('Vector Direction',(0.,1.,0.)) ;
#74=DIRECTION('Vector Direction',(1.,0.,0.)) ;
#81=DIRECTION('Vector Direction',(0.,1.,0.)) ;
#93=DIRECTION('Axis2P3D Direction',(1.,-0.,0.)) ;
#94=DIRECTION('Axis2P3D XDirection',(0.,-0.,-1.)) ;
#98=DIRECTION('Vector Direction',(0.,0.,-1.)) ;
#105=DIRECTION('Vector Direction',(0.,1.,0.)) ;
#112=DIRECTION('Vector Direction',(0.,0.,1.)) ;
#124=DIRECTION('Axis2P3D Direction',(0.,1.,-0.)) ;
#125=DIRECTION('Axis2P3D XDirection',(-1.,0.,0.)) ;
#129=DIRECTION('Vector Direction',(0.,0.,1.)) ;
#136=DIRECTION('Vector Direction',(-1.,0.,0.)) ;
#143=DIRECTION('Vector Direction',(0.,0.,1.)) ;
#150=DIRECTION('Vector Direction',(-1.,0.,0.)) ;
#157=DIRECTION('Vector Direction',(0.,0.,1.)) ;
#164=DIRECTION('Vector Direction',(-1.,0.,0.)) ;
#180=DIRECTION('Axis2P3D Direction',(0.,0.,1.)) ;
#181=DIRECTION('Axis2P3D XDirection',(1.,0.,0.)) ;
#185=DIRECTION('Vector Direction',(0.,-1.,0.)) ;
#192=DIRECTION('Vector Direction',(1.,0.,0.)) ;
#199=DIRECTION('Vector Direction',(0.,-1.,0.)) ;
#206=DIRECTION('Vector Direction',(1.,0.,0.)) ;
#213=DIRECTION('Vector Direction',(0.,-1.,0.)) ;
#220=DIRECTION('Vector Direction',(-1.,0.,0.)) ;
#236=DIRECTION('Axis2P3D Direction',(1.,0.,0.)) ;
#237=DIRECTION('Axis2P3D XDirection',(0.,1.,0.)) ;
#241=DIRECTION('Vector Direction',(0.,1.,0.)) ;
#248=DIRECTION('Vector Direction',(0.,0.,1.)) ;
#255=DIRECTION('Vector Direction',(0.,1.,0.)) ;
#267=DIRECTION('Vector Direction',(0.,1.,0.)) ;
#274=DIRECTION('Vector Direction',(-1.,0.,0.)) ;
#281=DIRECTION('Vector Direction',(0.,1.,0.)) ;
#288=DIRECTION('Vector Direction',(1.,0.,0.)) ;
#295=DIRECTION('Vector Direction',(0.,-1.,0.)) ;
#302=DIRECTION('Vector Direction',(1.,0.,0.)) ;
#318=DIRECTION('Axis2P3D Direction',(-1.,0.,0.)) ;
#319=DIRECTION('Axis2P3D XDirection',(0.,-1.,0.)) ;
#323=DIRECTION('Vector Direction',(0.,-1.,0.)) ;
#332=DIRECTION('Vector Direction',(0.,0.,1.)) ;
#337=DIRECTION('Vector Direction',(0.,0.,1.)) ;
#349=DIRECTION('Axis2P3D Direction',(0.,-1.,0.)) ;
#350=DIRECTION('Axis2P3D XDirection',(1.,0.,0.)) ;
#354=DIRECTION('Vector Direction',(0.,0.,1.)) ;
#361=DIRECTION('Vector Direction',(1.,0.,0.)) ;
#366=DIRECTION('Vector Direction',(0.,0.,1.)) ;
#373=DIRECTION('Vector Direction',(-1.,0.,0.)) ;
#380=DIRECTION('Vector Direction',(0.,0.,1.)) ;
#396=DIRECTION('Axis2P3D Direction',(1.,0.,-0.)) ;
#397=DIRECTION('Axis2P3D XDirection',(0.,0.,1.)) ;
#401=DIRECTION('Vector Direction',(0.,0.,1.)) ;
#408=DIRECTION('Vector Direction',(0.,-1.,0.)) ;
#420=DIRECTION('Axis2P3D Direction',(1.,0.,0.)) ;
#421=DIRECTION('Axis2P3D XDirection',(0.,1.,0.)) ;
#425=DIRECTION('Vector Direction',(0.,1.,0.)) ;
#432=DIRECTION('Vector Direction',(0.,0.,1.)) ;
#444=DIRECTION('Vector Direction',(-1.,0.,0.)) ;
#451=DIRECTION('Vector Direction',(0.,-1.,0.)) ;
#463=DIRECTION('Axis2P3D Direction',(-1.,0.,0.)) ;
#464=DIRECTION('Axis2P3D XDirection',(-0.,0.,-1.)) ;
#468=DIRECTION('Vector Direction',(0.,0.,-1.)) ;
#480=DIRECTION('Axis2P3D Direction',(0.,-1.,0.)) ;
#481=DIRECTION('Axis2P3D XDirection',(1.,0.,0.)) ;
#485=DIRECTION('Vector Direction',(0.,0.,1.)) ;
#492=DIRECTION('Vector Direction',(1.,0.,0.)) ;
#508=DIRECTION('Axis2P3D Direction',(0.,0.,1.)) ;
#509=DIRECTION('Axis2P3D XDirection',(1.,0.,0.)) ;
#513=DIRECTION('Vector Direction',(0.,-1.,0.)) ;
#524=DIRECTION('Vector Direction',(-1.,0.,0.)) ;
#536=DIRECTION('Axis2P3D Direction',(-1.,0.,0.)) ;
#537=DIRECTION('Axis2P3D XDirection',(0.,-1.,0.)) ;
#548=DIRECTION('Axis2P3D Direction',(0.,1.,-0.)) ;
#549=DIRECTION('Axis2P3D XDirection',(-1.,0.,0.)) ;
#553=DIRECTION('Vector Direction',(0.,0.,1.)) ;
#569=DIRECTION('Axis2P3D Direction',(-1.,0.,0.)) ;
#570=DIRECTION('Axis2P3D XDirection',(0.,0.,1.)) ;
#48=AXIS2_PLACEMENT_3D(' ',#47,$,$) ;
#55=AXIS2_PLACEMENT_3D('Plane Axis2P3D',#52,#53,#54) ;
#95=AXIS2_PLACEMENT_3D('Plane Axis2P3D',#92,#93,#94) ;
#126=AXIS2_PLACEMENT_3D('Plane Axis2P3D',#123,#124,#125) ;
#182=AXIS2_PLACEMENT_3D('Plane Axis2P3D',#179,#180,#181) ;
#238=AXIS2_PLACEMENT_3D('Plane Axis2P3D',#235,#236,#237) ;
#320=AXIS2_PLACEMENT_3D('Plane Axis2P3D',#317,#318,#319) ;
#351=AXIS2_PLACEMENT_3D('Plane Axis2P3D',#348,#349,#350) ;
#398=AXIS2_PLACEMENT_3D('Plane Axis2P3D',#395,#396,#397) ;
#422=AXIS2_PLACEMENT_3D('Plane Axis2P3D',#419,#420,#421) ;
#465=AXIS2_PLACEMENT_3D('Plane Axis2P3D',#462,#463,#464) ;
#482=AXIS2_PLACEMENT_3D('Plane Axis2P3D',#479,#480,#481) ;
#510=AXIS2_PLACEMENT_3D('Plane Axis2P3D',#507,#508,#509) ;
#538=AXIS2_PLACEMENT_3D('Plane Axis2P3D',#535,#536,#537) ;
#550=AXIS2_PLACEMENT_3D('Plane Axis2P3D',#547,#548,#549) ;
#571=AXIS2_PLACEMENT_3D('Plane Axis2P3D',#568,#569,#570) ;
#40=PRODUCT_DEFINITION_SHAPE(' ',' ',#14) ;
#31=APPROVAL_PERSON_ORGANIZATION(#25,#21,#19) ;
#25=PERSON_AND_ORGANIZATION(#22,#23) ;
#22=PERSON(' ',' ',' ',$,$,$) ;
#23=ORGANIZATION(' ',' ',' ') ;
#21=APPROVAL(#20,' ') ;
#20=APPROVAL_STATUS('not_yet_approved') ;
#19=APPROVAL_ROLE('APPROVER') ;
#13=DATE_AND_TIME(#11,#12) ;
#12=LOCAL_TIME(17,22,46.,#10) ;
#10=COORDINATED_UNIVERSAL_TIME_OFFSET(0,0,.AHEAD.) ;
#86=ORIENTED_EDGE('',*,*,#65,.F.) ;
#87=ORIENTED_EDGE('',*,*,#72,.F.) ;
#88=ORIENTED_EDGE('',*,*,#79,.T.) ;
#89=ORIENTED_EDGE('',*,*,#84,.T.) ;
#117=ORIENTED_EDGE('',*,*,#84,.F.) ;
#118=ORIENTED_EDGE('',*,*,#103,.T.) ;
#119=ORIENTED_EDGE('',*,*,#110,.T.) ;
#120=ORIENTED_EDGE('',*,*,#115,.T.) ;
#169=ORIENTED_EDGE('',*,*,#103,.F.) ;
#170=ORIENTED_EDGE('',*,*,#79,.F.) ;
#171=ORIENTED_EDGE('',*,*,#134,.F.) ;
#172=ORIENTED_EDGE('',*,*,#141,.T.) ;
#173=ORIENTED_EDGE('',*,*,#148,.T.) ;
#174=ORIENTED_EDGE('',*,*,#155,.F.) ;
#175=ORIENTED_EDGE('',*,*,#162,.F.) ;
#176=ORIENTED_EDGE('',*,*,#167,.T.) ;
#225=ORIENTED_EDGE('',*,*,#110,.F.) ;
#226=ORIENTED_EDGE('',*,*,#167,.F.) ;
#227=ORIENTED_EDGE('',*,*,#190,.F.) ;
#228=ORIENTED_EDGE('',*,*,#197,.F.) ;
#229=ORIENTED_EDGE('',*,*,#204,.T.) ;
#230=ORIENTED_EDGE('',*,*,#211,.T.) ;
#231=ORIENTED_EDGE('',*,*,#218,.T.) ;
#232=ORIENTED_EDGE('',*,*,#223,.T.) ;
#260=ORIENTED_EDGE('',*,*,#148,.F.) ;
#261=ORIENTED_EDGE('',*,*,#246,.T.) ;
#262=ORIENTED_EDGE('',*,*,#253,.T.) ;
#263=ORIENTED_EDGE('',*,*,#258,.F.) ;
#307=ORIENTED_EDGE('',*,*,#272,.T.) ;
#308=ORIENTED_EDGE('',*,*,#279,.T.) ;
#309=ORIENTED_EDGE('',*,*,#286,.T.) ;
#310=ORIENTED_EDGE('',*,*,#293,.T.) ;
#311=ORIENTED_EDGE('',*,*,#300,.F.) ;
#312=ORIENTED_EDGE('',*,*,#305,.F.) ;
#313=ORIENTED_EDGE('',*,*,#246,.F.) ;
#314=ORIENTED_EDGE('',*,*,#141,.F.) ;
#342=ORIENTED_EDGE('',*,*,#330,.T.) ;
#343=ORIENTED_EDGE('',*,*,#335,.F.) ;
#344=ORIENTED_EDGE('',*,*,#218,.F.) ;
#345=ORIENTED_EDGE('',*,*,#340,.T.) ;
#385=ORIENTED_EDGE('',*,*,#293,.F.) ;
#386=ORIENTED_EDGE('',*,*,#359,.T.) ;
#387=ORIENTED_EDGE('',*,*,#364,.T.) ;
#388=ORIENTED_EDGE('',*,*,#340,.F.) ;
#389=ORIENTED_EDGE('',*,*,#211,.F.) ;
#390=ORIENTED_EDGE('',*,*,#371,.T.) ;
#391=ORIENTED_EDGE('',*,*,#378,.F.) ;
#392=ORIENTED_EDGE('',*,*,#383,.F.) ;
#413=ORIENTED_EDGE('',*,*,#204,.F.) ;
#414=ORIENTED_EDGE('',*,*,#406,.T.) ;
#415=ORIENTED_EDGE('',*,*,#411,.T.) ;
#416=ORIENTED_EDGE('',*,*,#371,.F.) ;
#437=ORIENTED_EDGE('',*,*,#430,.T.) ;
#438=ORIENTED_EDGE('',*,*,#359,.F.) ;
#439=ORIENTED_EDGE('',*,*,#286,.F.) ;
#440=ORIENTED_EDGE('',*,*,#435,.T.) ;
#456=ORIENTED_EDGE('',*,*,#378,.T.) ;
#457=ORIENTED_EDGE('',*,*,#411,.F.) ;
#458=ORIENTED_EDGE('',*,*,#449,.T.) ;
#459=ORIENTED_EDGE('',*,*,#454,.T.) ;
#473=ORIENTED_EDGE('',*,*,#454,.F.) ;
#474=ORIENTED_EDGE('',*,*,#471,.T.) ;
#475=ORIENTED_EDGE('',*,*,#300,.T.) ;
#476=ORIENTED_EDGE('',*,*,#383,.T.) ;
#497=ORIENTED_EDGE('',*,*,#471,.F.) ;
#498=ORIENTED_EDGE('',*,*,#449,.F.) ;
#499=ORIENTED_EDGE('',*,*,#406,.F.) ;
#500=ORIENTED_EDGE('',*,*,#197,.T.) ;
#501=ORIENTED_EDGE('',*,*,#490,.T.) ;
#502=ORIENTED_EDGE('',*,*,#495,.F.) ;
#503=ORIENTED_EDGE('',*,*,#253,.F.) ;
#504=ORIENTED_EDGE('',*,*,#305,.T.) ;
#518=ORIENTED_EDGE('',*,*,#516,.T.) ;
#519=ORIENTED_EDGE('',*,*,#155,.T.) ;
#520=ORIENTED_EDGE('',*,*,#258,.T.) ;
#521=ORIENTED_EDGE('',*,*,#495,.T.) ;
#529=ORIENTED_EDGE('',*,*,#364,.F.) ;
#530=ORIENTED_EDGE('',*,*,#430,.F.) ;
#531=ORIENTED_EDGE('',*,*,#527,.F.) ;
#532=ORIENTED_EDGE('',*,*,#330,.F.) ;
#541=ORIENTED_EDGE('',*,*,#490,.F.) ;
#542=ORIENTED_EDGE('',*,*,#190,.T.) ;
#543=ORIENTED_EDGE('',*,*,#162,.T.) ;
#544=ORIENTED_EDGE('',*,*,#516,.F.) ;
#558=ORIENTED_EDGE('',*,*,#223,.F.) ;
#559=ORIENTED_EDGE('',*,*,#335,.T.) ;
#560=ORIENTED_EDGE('',*,*,#527,.T.) ;
#561=ORIENTED_EDGE('',*,*,#435,.F.) ;
#562=ORIENTED_EDGE('',*,*,#279,.F.) ;
#563=ORIENTED_EDGE('',*,*,#556,.T.) ;
#564=ORIENTED_EDGE('',*,*,#65,.T.) ;
#565=ORIENTED_EDGE('',*,*,#115,.F.) ;
#574=ORIENTED_EDGE('',*,*,#272,.F.) ;
#575=ORIENTED_EDGE('',*,*,#134,.T.) ;
#576=ORIENTED_EDGE('',*,*,#72,.T.) ;
#577=ORIENTED_EDGE('',*,*,#556,.F.) ;
#533=FACE_BOUND('',#528,.T.) ;
#51=CLOSED_SHELL('Closed Shell',(#91,#122,#178,#234,#265,#316,#347,#394,#418,#442,#461,#478,#506,#534,#546,#567,#579)) ;
#59=VECTOR('Line Direction',#58,1.) ;
#68=VECTOR('Line Direction',#67,1.) ;
#75=VECTOR('Line Direction',#74,1.) ;
#82=VECTOR('Line Direction',#81,1.) ;
#99=VECTOR('Line Direction',#98,1.) ;
#106=VECTOR('Line Direction',#105,1.) ;
#113=VECTOR('Line Direction',#112,1.) ;
#130=VECTOR('Line Direction',#129,1.) ;
#137=VECTOR('Line Direction',#136,1.) ;
#144=VECTOR('Line Direction',#143,1.) ;
#151=VECTOR('Line Direction',#150,1.) ;
#158=VECTOR('Line Direction',#157,1.) ;
#165=VECTOR('Line Direction',#164,1.) ;
#186=VECTOR('Line Direction',#185,1.) ;
#193=VECTOR('Line Direction',#192,1.) ;
#200=VECTOR('Line Direction',#199,1.) ;
#207=VECTOR('Line Direction',#206,1.) ;
#214=VECTOR('Line Direction',#213,1.) ;
#221=VECTOR('Line Direction',#220,1.) ;
#242=VECTOR('Line Direction',#241,1.) ;
#249=VECTOR('Line Direction',#248,1.) ;
#256=VECTOR('Line Direction',#255,1.) ;
#268=VECTOR('Line Direction',#267,1.) ;
#275=VECTOR('Line Direction',#274,1.) ;
#282=VECTOR('Line Direction',#281,1.) ;
#289=VECTOR('Line Direction',#288,1.) ;
#296=VECTOR('Line Direction',#295,1.) ;
#303=VECTOR('Line Direction',#302,1.) ;
#324=VECTOR('Line Direction',#323,1.) ;
#333=VECTOR('Line Direction',#332,1.) ;
#338=VECTOR('Line Direction',#337,1.) ;
#355=VECTOR('Line Direction',#354,1.) ;
#362=VECTOR('Line Direction',#361,1.) ;
#367=VECTOR('Line Direction',#366,1.) ;
#374=VECTOR('Line Direction',#373,1.) ;
#381=VECTOR('Line Direction',#380,1.) ;
#402=VECTOR('Line Direction',#401,1.) ;
#409=VECTOR('Line Direction',#408,1.) ;
#426=VECTOR('Line Direction',#425,1.) ;
#433=VECTOR('Line Direction',#432,1.) ;
#445=VECTOR('Line Direction',#444,1.) ;
#452=VECTOR('Line Direction',#451,1.) ;
#469=VECTOR('Line Direction',#468,1.) ;
#486=VECTOR('Line Direction',#485,1.) ;
#493=VECTOR('Line Direction',#492,1.) ;
#514=VECTOR('Line Direction',#513,1.) ;
#525=VECTOR('Line Direction',#524,1.) ;
#554=VECTOR('Line Direction',#553,1.) ;
#581=ADVANCED_BREP_SHAPE_REPRESENTATION('NONE',(#580),#46) ;
#49=SHAPE_REPRESENTATION(' ',(#48),#46) ;
#91=ADVANCED_FACE('Corps principal',(#90),#56,.F.) ;
#122=ADVANCED_FACE('Corps principal',(#121),#96,.T.) ;
#178=ADVANCED_FACE('Corps principal',(#177),#127,.F.) ;
#234=ADVANCED_FACE('Corps principal',(#233),#183,.F.) ;
#265=ADVANCED_FACE('Corps principal',(#264),#239,.T.) ;
#316=ADVANCED_FACE('Corps principal',(#315),#183,.F.) ;
#347=ADVANCED_FACE('Corps principal',(#346),#321,.F.) ;
#394=ADVANCED_FACE('Corps principal',(#393),#352,.T.) ;
#418=ADVANCED_FACE('Corps principal',(#417),#399,.T.) ;
#442=ADVANCED_FACE('Corps principal',(#441),#423,.F.) ;
#461=ADVANCED_FACE('Corps principal',(#460),#56,.F.) ;
#478=ADVANCED_FACE('Corps principal',(#477),#466,.T.) ;
#506=ADVANCED_FACE('Corps principal',(#505),#483,.F.) ;
#534=ADVANCED_FACE('Corps principal',(#522,#533),#511,.T.) ;
#546=ADVANCED_FACE('Corps principal',(#545),#539,.T.) ;
#567=ADVANCED_FACE('Corps principal',(#566),#551,.T.) ;
#579=ADVANCED_FACE('Corps principal',(#578),#572,.T.) ;
#4=APPLICATION_PROTOCOL_DEFINITION('international standard','config_control_design',1994,#1) ;
#32=APPROVAL_DATE_TIME(#13,#21) ;
#580=MANIFOLD_SOLID_BREP('Corps principal',#51) ;
#11=CALENDAR_DATE(2020,6,6) ;
#30=CC_DESIGN_APPROVAL(#21,(#16,#6,#14)) ;
#18=CC_DESIGN_DATE_AND_TIME_ASSIGNMENT(#13,#17,(#16)) ;
#29=CC_DESIGN_DATE_AND_TIME_ASSIGNMENT(#13,#28,(#14)) ;
#17=DATE_TIME_ROLE('classification_date') ;
#28=DATE_TIME_ROLE('creation_date') ;
#27=CC_DESIGN_PERSON_AND_ORGANIZATION_ASSIGNMENT(#25,#26,(#16)) ;
#33=CC_DESIGN_PERSON_AND_ORGANIZATION_ASSIGNMENT(#25,#34,(#6)) ;
#35=CC_DESIGN_PERSON_AND_ORGANIZATION_ASSIGNMENT(#25,#36,(#6,#14)) ;
#37=CC_DESIGN_PERSON_AND_ORGANIZATION_ASSIGNMENT(#25,#38,(#5)) ;
#26=PERSON_AND_ORGANIZATION_ROLE('classification_officer') ;
#34=PERSON_AND_ORGANIZATION_ROLE('design_supplier') ;
#36=PERSON_AND_ORGANIZATION_ROLE('creator') ;
#38=PERSON_AND_ORGANIZATION_ROLE('design_owner') ;
#39=CC_DESIGN_SECURITY_CLASSIFICATION(#16,(#6)) ;
#582=SHAPE_REPRESENTATION_RELATIONSHIP(' ',' ',#49,#581) ;
#3=DESIGN_CONTEXT(' ',#1,'design') ;
#65=EDGE_CURVE('',#62,#64,#60,.T.) ;
#72=EDGE_CURVE('',#71,#62,#69,.T.) ;
#79=EDGE_CURVE('',#71,#78,#76,.F.) ;
#84=EDGE_CURVE('',#78,#64,#83,.T.) ;
#103=EDGE_CURVE('',#78,#102,#100,.T.) ;
#110=EDGE_CURVE('',#102,#109,#107,.T.) ;
#115=EDGE_CURVE('',#109,#64,#114,.T.) ;
#134=EDGE_CURVE('',#133,#71,#131,.T.) ;
#141=EDGE_CURVE('',#133,#140,#138,.F.) ;
#148=EDGE_CURVE('',#140,#147,#145,.T.) ;
#155=EDGE_CURVE('',#154,#147,#152,.F.) ;
#162=EDGE_CURVE('',#161,#154,#159,.T.) ;
#167=EDGE_CURVE('',#161,#102,#166,.F.) ;
#190=EDGE_CURVE('',#189,#161,#187,.T.) ;
#197=EDGE_CURVE('',#196,#189,#194,.F.) ;
#204=EDGE_CURVE('',#196,#203,#201,.T.) ;
#211=EDGE_CURVE('',#203,#210,#208,.F.) ;
#218=EDGE_CURVE('',#210,#217,#215,.T.) ;
#223=EDGE_CURVE('',#217,#109,#222,.F.) ;
#246=EDGE_CURVE('',#140,#245,#243,.T.) ;
#253=EDGE_CURVE('',#245,#252,#250,.T.) ;
#258=EDGE_CURVE('',#147,#252,#257,.T.) ;
#272=EDGE_CURVE('',#133,#271,#269,.T.) ;
#279=EDGE_CURVE('',#271,#278,#276,.F.) ;
#286=EDGE_CURVE('',#278,#285,#283,.T.) ;
#293=EDGE_CURVE('',#285,#292,#290,.F.) ;
#300=EDGE_CURVE('',#299,#292,#297,.T.) ;
#305=EDGE_CURVE('',#245,#299,#304,.F.) ;
#330=EDGE_CURVE('',#327,#329,#325,.T.) ;
#335=EDGE_CURVE('',#217,#329,#334,.T.) ;
#340=EDGE_CURVE('',#210,#327,#339,.T.) ;
#359=EDGE_CURVE('',#285,#358,#356,.T.) ;
#364=EDGE_CURVE('',#358,#327,#363,.F.) ;
#371=EDGE_CURVE('',#203,#370,#368,.T.) ;
#378=EDGE_CURVE('',#377,#370,#375,.T.) ;
#383=EDGE_CURVE('',#292,#377,#382,.T.) ;
#406=EDGE_CURVE('',#196,#405,#403,.T.) ;
#411=EDGE_CURVE('',#405,#370,#410,.T.) ;
#430=EDGE_CURVE('',#429,#358,#427,.T.) ;
#435=EDGE_CURVE('',#278,#429,#434,.T.) ;
#449=EDGE_CURVE('',#405,#448,#446,.F.) ;
#454=EDGE_CURVE('',#448,#377,#453,.T.) ;
#471=EDGE_CURVE('',#448,#299,#470,.T.) ;
#490=EDGE_CURVE('',#189,#489,#487,.T.) ;
#495=EDGE_CURVE('',#252,#489,#494,.F.) ;
#516=EDGE_CURVE('',#489,#154,#515,.T.) ;
#527=EDGE_CURVE('',#329,#429,#526,.F.) ;
#556=EDGE_CURVE('',#271,#62,#555,.T.) ;
#85=EDGE_LOOP('',(#86,#87,#88,#89)) ;
#116=EDGE_LOOP('',(#117,#118,#119,#120)) ;
#168=EDGE_LOOP('',(#169,#170,#171,#172,#173,#174,#175,#176)) ;
#224=EDGE_LOOP('',(#225,#226,#227,#228,#229,#230,#231,#232)) ;
#259=EDGE_LOOP('',(#260,#261,#262,#263)) ;
#306=EDGE_LOOP('',(#307,#308,#309,#310,#311,#312,#313,#314)) ;
#341=EDGE_LOOP('',(#342,#343,#344,#345)) ;
#384=EDGE_LOOP('',(#385,#386,#387,#388,#389,#390,#391,#392)) ;
#412=EDGE_LOOP('',(#413,#414,#415,#416)) ;
#436=EDGE_LOOP('',(#437,#438,#439,#440)) ;
#455=EDGE_LOOP('',(#456,#457,#458,#459)) ;
#472=EDGE_LOOP('',(#473,#474,#475,#476)) ;
#496=EDGE_LOOP('',(#497,#498,#499,#500,#501,#502,#503,#504)) ;
#517=EDGE_LOOP('',(#518,#519,#520,#521)) ;
#528=EDGE_LOOP('',(#529,#530,#531,#532)) ;
#540=EDGE_LOOP('',(#541,#542,#543,#544)) ;
#557=EDGE_LOOP('',(#558,#559,#560,#561,#562,#563,#564,#565)) ;
#573=EDGE_LOOP('',(#574,#575,#576,#577)) ;
#90=FACE_OUTER_BOUND('',#85,.T.) ;
#121=FACE_OUTER_BOUND('',#116,.T.) ;
#177=FACE_OUTER_BOUND('',#168,.T.) ;
#233=FACE_OUTER_BOUND('',#224,.T.) ;
#264=FACE_OUTER_BOUND('',#259,.T.) ;
#315=FACE_OUTER_BOUND('',#306,.T.) ;
#346=FACE_OUTER_BOUND('',#341,.T.) ;
#393=FACE_OUTER_BOUND('',#384,.T.) ;
#417=FACE_OUTER_BOUND('',#412,.T.) ;
#441=FACE_OUTER_BOUND('',#436,.T.) ;
#460=FACE_OUTER_BOUND('',#455,.T.) ;
#477=FACE_OUTER_BOUND('',#472,.T.) ;
#505=FACE_OUTER_BOUND('',#496,.T.) ;
#522=FACE_OUTER_BOUND('',#517,.T.) ;
#545=FACE_OUTER_BOUND('',#540,.T.) ;
#566=FACE_OUTER_BOUND('',#557,.T.) ;
#578=FACE_OUTER_BOUND('',#573,.T.) ;
#45=UNCERTAINTY_MEASURE_WITH_UNIT(LENGTH_MEASURE(0.005),#41,'distance_accuracy_value','CONFUSED CURVE UNCERTAINTY') ;
#60=LINE('Line',#57,#59) ;
#69=LINE('Line',#66,#68) ;
#76=LINE('Line',#73,#75) ;
#83=LINE('Line',#80,#82) ;
#100=LINE('Line',#97,#99) ;
#107=LINE('Line',#104,#106) ;
#114=LINE('Line',#111,#113) ;
#131=LINE('Line',#128,#130) ;
#138=LINE('Line',#135,#137) ;
#145=LINE('Line',#142,#144) ;
#152=LINE('Line',#149,#151) ;
#159=LINE('Line',#156,#158) ;
#166=LINE('Line',#163,#165) ;
#187=LINE('Line',#184,#186) ;
#194=LINE('Line',#191,#193) ;
#201=LINE('Line',#198,#200) ;
#208=LINE('Line',#205,#207) ;
#215=LINE('Line',#212,#214) ;
#222=LINE('Line',#219,#221) ;
#243=LINE('Line',#240,#242) ;
#250=LINE('Line',#247,#249) ;
#257=LINE('Line',#254,#256) ;
#269=LINE('Line',#266,#268) ;
#276=LINE('Line',#273,#275) ;
#283=LINE('Line',#280,#282) ;
#290=LINE('Line',#287,#289) ;
#297=LINE('Line',#294,#296) ;
#304=LINE('Line',#301,#303) ;
#325=LINE('Line',#322,#324) ;
#334=LINE('Line',#331,#333) ;
#339=LINE('Line',#336,#338) ;
#356=LINE('Line',#353,#355) ;
#363=LINE('Line',#360,#362) ;
#368=LINE('Line',#365,#367) ;
#375=LINE('Line',#372,#374) ;
#382=LINE('Line',#379,#381) ;
#403=LINE('Line',#400,#402) ;
#410=LINE('Line',#407,#409) ;
#427=LINE('Line',#424,#426) ;
#434=LINE('Line',#431,#433) ;
#446=LINE('Line',#443,#445) ;
#453=LINE('Line',#450,#452) ;
#470=LINE('Line',#467,#469) ;
#487=LINE('Line',#484,#486) ;
#494=LINE('Line',#491,#493) ;
#515=LINE('Line',#512,#514) ;
#526=LINE('Line',#523,#525) ;
#555=LINE('Line',#552,#554) ;
#2=MECHANICAL_CONTEXT(' ',#1,'mechanical') ;
#24=PERSONAL_ADDRESS(' ',' ',' ',' ',' ',' ',' ',' ',' ',' ',' ',' ',(#22),' ') ;
#56=PLANE('',#55) ;
#96=PLANE('',#95) ;
#127=PLANE('',#126) ;
#183=PLANE('',#182) ;
#239=PLANE('',#238) ;
#321=PLANE('',#320) ;
#352=PLANE('',#351) ;
#399=PLANE('',#398) ;
#423=PLANE('',#422) ;
#466=PLANE('',#465) ;
#483=PLANE('',#482) ;
#511=PLANE('',#510) ;
#539=PLANE('',#538) ;
#551=PLANE('',#550) ;
#572=PLANE('',#571) ;
#43=PLANE_ANGLE_MEASURE_WITH_UNIT(PLANE_ANGLE_MEASURE(0.0174532925199),#42) ;
#7=PRODUCT_CATEGORY('part',$) ;
#9=PRODUCT_CATEGORY_RELATIONSHIP(' ',' ',#7,#8) ;
#6=PRODUCT_DEFINITION_FORMATION_WITH_SPECIFIED_SOURCE('',' ',#5,.NOT_KNOWN.) ;
#8=PRODUCT_RELATED_PRODUCT_CATEGORY('detail',$,(#5)) ;
#50=SHAPE_DEFINITION_REPRESENTATION(#40,#49) ;
#62=VERTEX_POINT('',#61) ;
#64=VERTEX_POINT('',#63) ;
#71=VERTEX_POINT('',#70) ;
#78=VERTEX_POINT('',#77) ;
#102=VERTEX_POINT('',#101) ;
#109=VERTEX_POINT('',#108) ;
#133=VERTEX_POINT('',#132) ;
#140=VERTEX_POINT('',#139) ;
#147=VERTEX_POINT('',#146) ;
#154=VERTEX_POINT('',#153) ;
#161=VERTEX_POINT('',#160) ;
#189=VERTEX_POINT('',#188) ;
#196=VERTEX_POINT('',#195) ;
#203=VERTEX_POINT('',#202) ;
#210=VERTEX_POINT('',#209) ;
#217=VERTEX_POINT('',#216) ;
#245=VERTEX_POINT('',#244) ;
#252=VERTEX_POINT('',#251) ;
#271=VERTEX_POINT('',#270) ;
#278=VERTEX_POINT('',#277) ;
#285=VERTEX_POINT('',#284) ;
#292=VERTEX_POINT('',#291) ;
#299=VERTEX_POINT('',#298) ;
#327=VERTEX_POINT('',#326) ;
#329=VERTEX_POINT('',#328) ;
#358=VERTEX_POINT('',#357) ;
#370=VERTEX_POINT('',#369) ;
#377=VERTEX_POINT('',#376) ;
#405=VERTEX_POINT('',#404) ;
#429=VERTEX_POINT('',#428) ;
#448=VERTEX_POINT('',#447) ;
#489=VERTEX_POINT('',#488) ;
#41=(LENGTH_UNIT()NAMED_UNIT(*)SI_UNIT(.MILLI.,.METRE.)) ;
#42=(NAMED_UNIT(*)PLANE_ANGLE_UNIT()SI_UNIT($,.RADIAN.)) ;
#44=(NAMED_UNIT(*)SI_UNIT($,.STERADIAN.)SOLID_ANGLE_UNIT()) ;
#46=(GEOMETRIC_REPRESENTATION_CONTEXT(3)GLOBAL_UNCERTAINTY_ASSIGNED_CONTEXT((#45))GLOBAL_UNIT_ASSIGNED_CONTEXT((#41,#42,#44))REPRESENTATION_CONTEXT(' ',' ')) ;
ENDSEC;
END-ISO-10303-21;
