ISO-10303-21;
HEADER;
FILE_DESCRIPTION(('CATIA V5 STEP','CAx-IF Rec.Pracs.--- Model Styling and Organization---1.2---2011-12-15'),'2;1');

FILE_NAME('C:\\Users\\lvassieu\\Documents\\Perso\\mobilier\\Plaque support.stp','2020-06-02T13:36:50+00:00',('none'),('none'),'CATIA Version 5-6 Release 2014 SP4 HF109','CATIA V5 STEP AP214','none');

FILE_SCHEMA(('AUTOMOTIVE_DESIGN { 1 0 10303 214 1 1 1 1 }'));

ENDSEC;
DATA;
#5=PRODUCT('Part1','','',(#2)) ;
#2=PRODUCT_CONTEXT(' ',#1,'mechanical') ;
#1=APPLICATION_CONTEXT('automotive design') ;
#10=PRODUCT_DEFINITION('',' ',#6,#3) ;
#3=PRODUCT_DEFINITION_CONTEXT('part definition',#1,' ') ;
#11=PRODUCT_DEFINITION_SHAPE(' ',' ',#10) ;
#299=MECHANICAL_DESIGN_GEOMETRIC_PRESENTATION_REPRESENTATION(' ',(#29),#16) ;
#19=SHAPE_REPRESENTATION(' ',(#18),#16) ;
#18=AXIS2_PLACEMENT_3D(' ',#17,$,$) ;
#34=AXIS2_PLACEMENT_3D('Plane Axis2P3D',#31,#32,#33) ;
#38=AXIS2_PLACEMENT_3D('Circle Axis2P3D',#36,#37,$) ;
#54=AXIS2_PLACEMENT_3D('Circle Axis2P3D',#52,#53,$) ;
#74=AXIS2_PLACEMENT_3D('Plane Axis2P3D',#71,#72,#73) ;
#105=AXIS2_PLACEMENT_3D('Cylinder Axis2P3D',#102,#103,#104) ;
#109=AXIS2_PLACEMENT_3D('Circle Axis2P3D',#107,#108,$) ;
#129=AXIS2_PLACEMENT_3D('Plane Axis2P3D',#126,#127,#128) ;
#153=AXIS2_PLACEMENT_3D('Cone Axis2P3D',#150,#151,#152) ;
#164=AXIS2_PLACEMENT_3D('Circle Axis2P3D',#162,#163,$) ;
#184=AXIS2_PLACEMENT_3D('Cylinder Axis2P3D',#181,#182,#183) ;
#204=AXIS2_PLACEMENT_3D('Circle Axis2P3D',#202,#203,$) ;
#219=AXIS2_PLACEMENT_3D('Plane Axis2P3D',#216,#217,#218) ;
#223=AXIS2_PLACEMENT_3D('Circle Axis2P3D',#221,#222,$) ;
#250=AXIS2_PLACEMENT_3D('Plane Axis2P3D',#247,#248,#249) ;
#269=AXIS2_PLACEMENT_3D('Plane Axis2P3D',#266,#267,#268) ;
#288=AXIS2_PLACEMENT_3D('Cone Axis2P3D',#285,#286,#287) ;
#17=CARTESIAN_POINT(' ',(0.,0.,0.)) ;
#31=CARTESIAN_POINT('Axis2P3D Location',(0.,0.,4.)) ;
#36=CARTESIAN_POINT('Axis2P3D Location',(0.,0.,4.)) ;
#40=CARTESIAN_POINT('Vertex',(-5.,24.4948974278,4.)) ;
#42=CARTESIAN_POINT('Vertex',(5.,24.4948974278,4.)) ;
#45=CARTESIAN_POINT('Line Origine',(5.,9.74744871392,4.)) ;
#49=CARTESIAN_POINT('Vertex',(5.,-5.,4.)) ;
#52=CARTESIAN_POINT('Axis2P3D Location',(0.,-5.,4.)) ;
#56=CARTESIAN_POINT('Vertex',(-5.,-5.,4.)) ;
#59=CARTESIAN_POINT('Line Origine',(-5.,9.74744871392,4.)) ;
#71=CARTESIAN_POINT('Axis2P3D Location',(5.,24.4948974278,0.)) ;
#76=CARTESIAN_POINT('Line Origine',(5.,-5.,3.5)) ;
#80=CARTESIAN_POINT('Vertex',(5.,-5.,3.)) ;
#83=CARTESIAN_POINT('Line Origine',(5.,24.4948974278,3.5)) ;
#87=CARTESIAN_POINT('Vertex',(5.,24.4948974278,3.)) ;
#90=CARTESIAN_POINT('Line Origine',(5.,9.74744871392,3.)) ;
#102=CARTESIAN_POINT('Axis2P3D Location',(0.,-5.,2.)) ;
#107=CARTESIAN_POINT('Axis2P3D Location',(0.,-5.,3.)) ;
#111=CARTESIAN_POINT('Vertex',(-5.,-5.,3.)) ;
#114=CARTESIAN_POINT('Line Origine',(-5.,-5.,2.)) ;
#126=CARTESIAN_POINT('Axis2P3D Location',(-5.,24.4948974278,0.)) ;
#131=CARTESIAN_POINT('Line Origine',(-5.,9.74744871392,3.)) ;
#135=CARTESIAN_POINT('Vertex',(-5.,24.4948974278,3.)) ;
#138=CARTESIAN_POINT('Line Origine',(-5.,24.4948974278,3.5)) ;
#150=CARTESIAN_POINT('Axis2P3D Location',(-8.58572472377E-015,-5.,8.)) ;
#155=CARTESIAN_POINT('Line Origine',(6.5,-5.,1.5)) ;
#159=CARTESIAN_POINT('Vertex',(8.,-5.,0.)) ;
#162=CARTESIAN_POINT('Axis2P3D Location',(4.4408920985E-015,-5.,-7.1054273576E-015)) ;
#166=CARTESIAN_POINT('Vertex',(-8.,-5.,0.)) ;
#169=CARTESIAN_POINT('Line Origine',(-6.5,-5.,1.5)) ;
#181=CARTESIAN_POINT('Axis2P3D Location',(0.,0.,2.)) ;
#187=CARTESIAN_POINT('Control Point',(7.00000000547,23.9999999984,1.)) ;
#188=CARTESIAN_POINT('Control Point',(6.33705573882,24.193358743,1.66294427761)) ;
#189=CARTESIAN_POINT('Control Point',(5.66995374597,24.3581436921,2.33004625403)) ;
#190=CARTESIAN_POINT('Control Point',(5.,24.4948974278,3.)) ;
#191=CARTESIAN_POINT('Vertex',(7.,24.0000000004,1.)) ;
#195=CARTESIAN_POINT('Control Point',(-7.00000000547,23.9999999984,1.)) ;
#196=CARTESIAN_POINT('Control Point',(-6.33705573884,24.193358743,1.66294427758)) ;
#197=CARTESIAN_POINT('Control Point',(-5.66995374604,24.3581436921,2.33004625396)) ;
#198=CARTESIAN_POINT('Control Point',(-5.,24.4948974278,3.)) ;
#199=CARTESIAN_POINT('Vertex',(-7.,24.0000000004,1.)) ;
#202=CARTESIAN_POINT('Axis2P3D Location',(0.,0.,1.)) ;
#216=CARTESIAN_POINT('Axis2P3D Location',(0.,0.,0.)) ;
#221=CARTESIAN_POINT('Axis2P3D Location',(-2.18410576725E-016,0.,0.)) ;
#225=CARTESIAN_POINT('Vertex',(-8.,22.627416998,0.)) ;
#227=CARTESIAN_POINT('Vertex',(8.,22.627416998,0.)) ;
#230=CARTESIAN_POINT('Line Origine',(-8.,8.81370849898,0.)) ;
#235=CARTESIAN_POINT('Line Origine',(8.,8.81370849898,0.)) ;
#247=CARTESIAN_POINT('Axis2P3D Location',(-8.,-0.252551286084,0.)) ;
#253=CARTESIAN_POINT('Control Point',(-8.,22.627416998,0.)) ;
#254=CARTESIAN_POINT('Control Point',(-7.68101483209,23.0785301486,0.318985167908)) ;
#255=CARTESIAN_POINT('Control Point',(-7.34796224242,23.5360503438,0.652037757584)) ;
#256=CARTESIAN_POINT('Control Point',(-7.,24.0000000004,1.)) ;
#266=CARTESIAN_POINT('Axis2P3D Location',(8.,-0.252551286084,0.)) ;
#272=CARTESIAN_POINT('Control Point',(8.,22.627416998,-5.55111512313E-017)) ;
#273=CARTESIAN_POINT('Control Point',(7.68101483209,23.0785301486,0.318985167908)) ;
#274=CARTESIAN_POINT('Control Point',(7.34796224242,23.5360503438,0.652037757584)) ;
#275=CARTESIAN_POINT('Control Point',(7.,24.0000000004,1.)) ;
#285=CARTESIAN_POINT('Axis2P3D Location',(-2.57571741713E-013,-1.7763568394E-014,-24.)) ;
#32=DIRECTION('Axis2P3D Direction',(0.,0.,1.)) ;
#33=DIRECTION('Axis2P3D XDirection',(1.,0.,0.)) ;
#37=DIRECTION('Axis2P3D Direction',(0.,0.,1.)) ;
#46=DIRECTION('Vector Direction',(0.,-1.,0.)) ;
#53=DIRECTION('Axis2P3D Direction',(0.,0.,1.)) ;
#60=DIRECTION('Vector Direction',(0.,-1.,0.)) ;
#72=DIRECTION('Axis2P3D Direction',(-1.,0.,0.)) ;
#73=DIRECTION('Axis2P3D XDirection',(0.,-1.,0.)) ;
#77=DIRECTION('Vector Direction',(0.,0.,1.)) ;
#84=DIRECTION('Vector Direction',(0.,0.,1.)) ;
#91=DIRECTION('Vector Direction',(0.,-1.,0.)) ;
#103=DIRECTION('Axis2P3D Direction',(0.,0.,1.)) ;
#104=DIRECTION('Axis2P3D XDirection',(-1.,1.22464679915E-016,0.)) ;
#108=DIRECTION('Axis2P3D Direction',(0.,0.,1.)) ;
#115=DIRECTION('Vector Direction',(0.,0.,1.)) ;
#127=DIRECTION('Axis2P3D Direction',(-1.,0.,0.)) ;
#128=DIRECTION('Axis2P3D XDirection',(0.,-1.,0.)) ;
#132=DIRECTION('Vector Direction',(0.,-1.,0.)) ;
#139=DIRECTION('Vector Direction',(0.,0.,1.)) ;
#151=DIRECTION('Axis2P3D Direction',(1.62832710278E-015,2.96059473233E-016,-1.)) ;
#152=DIRECTION('Axis2P3D XDirection',(-4.93879172355E-016,1.,2.63417803193E-016)) ;
#156=DIRECTION('Vector Direction',(0.707106781187,-4.18691322316E-016,-0.707106781187)) ;
#163=DIRECTION('Axis2P3D Direction',(-1.62832710278E-015,-8.04196841846E-031,1.)) ;
#170=DIRECTION('Vector Direction',(-0.707106781187,8.37382644631E-016,-0.707106781187)) ;
#182=DIRECTION('Axis2P3D Direction',(0.,0.,1.)) ;
#183=DIRECTION('Axis2P3D XDirection',(-0.2,0.979795897113,0.)) ;
#203=DIRECTION('Axis2P3D Direction',(0.,0.,1.)) ;
#217=DIRECTION('Axis2P3D Direction',(0.,0.,1.)) ;
#218=DIRECTION('Axis2P3D XDirection',(1.,0.,0.)) ;
#222=DIRECTION('Axis2P3D Direction',(0.,0.,1.)) ;
#231=DIRECTION('Vector Direction',(0.,-1.,0.)) ;
#236=DIRECTION('Vector Direction',(0.,-1.,0.)) ;
#248=DIRECTION('Axis2P3D Direction',(-0.707106781187,0.,0.707106781187)) ;
#249=DIRECTION('Axis2P3D XDirection',(0.,-1.,0.)) ;
#267=DIRECTION('Axis2P3D Direction',(-0.707106781187,-0.,-0.707106781187)) ;
#268=DIRECTION('Axis2P3D XDirection',(0.,-1.,0.)) ;
#286=DIRECTION('Axis2P3D Direction',(1.06581410364E-014,8.881784197E-016,1.)) ;
#287=DIRECTION('Axis2P3D XDirection',(-7.19944229977E-017,1.,-9.21962311176E-016)) ;
#8=PRODUCT_RELATED_PRODUCT_CATEGORY('part',$,(#5)) ;
#7=PRODUCT_CATEGORY('part','specification') ;
#29=STYLED_ITEM(' ',(#28),#21) ;
#28=PRESENTATION_STYLE_ASSIGNMENT((#27)) ;
#27=SURFACE_STYLE_USAGE(.BOTH.,#26) ;
#26=SURFACE_SIDE_STYLE(' ',(#25)) ;
#25=SURFACE_STYLE_FILL_AREA(#24) ;
#24=FILL_AREA_STYLE(' ',(#23)) ;
#23=FILL_AREA_STYLE_COLOUR(' ',#22) ;
#47=VECTOR('Line Direction',#46,1.) ;
#61=VECTOR('Line Direction',#60,1.) ;
#78=VECTOR('Line Direction',#77,1.) ;
#85=VECTOR('Line Direction',#84,1.) ;
#92=VECTOR('Line Direction',#91,1.) ;
#116=VECTOR('Line Direction',#115,1.) ;
#133=VECTOR('Line Direction',#132,1.) ;
#140=VECTOR('Line Direction',#139,1.) ;
#157=VECTOR('Line Direction',#156,1.) ;
#171=VECTOR('Line Direction',#170,1.) ;
#232=VECTOR('Line Direction',#231,1.) ;
#237=VECTOR('Line Direction',#236,1.) ;
#15=UNCERTAINTY_MEASURE_WITH_UNIT(LENGTH_MEASURE(0.005),#12,'distance_accuracy_value','CONFUSED CURVE UNCERTAINTY') ;
#298=SHAPE_REPRESENTATION_RELATIONSHIP(' ',' ',#19,#297) ;
#65=ORIENTED_EDGE('',*,*,#44,.T.) ;
#66=ORIENTED_EDGE('',*,*,#51,.T.) ;
#67=ORIENTED_EDGE('',*,*,#58,.T.) ;
#68=ORIENTED_EDGE('',*,*,#63,.T.) ;
#96=ORIENTED_EDGE('',*,*,#82,.T.) ;
#97=ORIENTED_EDGE('',*,*,#51,.F.) ;
#98=ORIENTED_EDGE('',*,*,#89,.F.) ;
#99=ORIENTED_EDGE('',*,*,#94,.T.) ;
#120=ORIENTED_EDGE('',*,*,#113,.T.) ;
#121=ORIENTED_EDGE('',*,*,#118,.T.) ;
#122=ORIENTED_EDGE('',*,*,#58,.F.) ;
#123=ORIENTED_EDGE('',*,*,#82,.F.) ;
#144=ORIENTED_EDGE('',*,*,#137,.T.) ;
#145=ORIENTED_EDGE('',*,*,#142,.T.) ;
#146=ORIENTED_EDGE('',*,*,#63,.F.) ;
#147=ORIENTED_EDGE('',*,*,#118,.F.) ;
#175=ORIENTED_EDGE('',*,*,#161,.T.) ;
#176=ORIENTED_EDGE('',*,*,#168,.T.) ;
#177=ORIENTED_EDGE('',*,*,#173,.F.) ;
#178=ORIENTED_EDGE('',*,*,#113,.F.) ;
#208=ORIENTED_EDGE('',*,*,#193,.F.) ;
#209=ORIENTED_EDGE('',*,*,#89,.T.) ;
#210=ORIENTED_EDGE('',*,*,#44,.F.) ;
#211=ORIENTED_EDGE('',*,*,#142,.F.) ;
#212=ORIENTED_EDGE('',*,*,#201,.F.) ;
#213=ORIENTED_EDGE('',*,*,#206,.T.) ;
#241=ORIENTED_EDGE('',*,*,#229,.F.) ;
#242=ORIENTED_EDGE('',*,*,#234,.F.) ;
#243=ORIENTED_EDGE('',*,*,#168,.F.) ;
#244=ORIENTED_EDGE('',*,*,#239,.F.) ;
#259=ORIENTED_EDGE('',*,*,#257,.F.) ;
#260=ORIENTED_EDGE('',*,*,#201,.T.) ;
#261=ORIENTED_EDGE('',*,*,#137,.F.) ;
#262=ORIENTED_EDGE('',*,*,#173,.T.) ;
#263=ORIENTED_EDGE('',*,*,#234,.T.) ;
#278=ORIENTED_EDGE('',*,*,#239,.T.) ;
#279=ORIENTED_EDGE('',*,*,#161,.F.) ;
#280=ORIENTED_EDGE('',*,*,#94,.F.) ;
#281=ORIENTED_EDGE('',*,*,#193,.T.) ;
#282=ORIENTED_EDGE('',*,*,#276,.F.) ;
#291=ORIENTED_EDGE('',*,*,#276,.T.) ;
#292=ORIENTED_EDGE('',*,*,#206,.F.) ;
#293=ORIENTED_EDGE('',*,*,#257,.T.) ;
#294=ORIENTED_EDGE('',*,*,#229,.T.) ;
#30=CLOSED_SHELL('Closed Shell',(#70,#101,#125,#149,#180,#215,#246,#265,#284,#296)) ;
#297=ADVANCED_BREP_SHAPE_REPRESENTATION('NONE',(#21),#16) ;
#70=ADVANCED_FACE('PartBody',(#69),#35,.T.) ;
#101=ADVANCED_FACE('PartBody',(#100),#75,.T.) ;
#125=ADVANCED_FACE('PartBody',(#124),#106,.F.) ;
#149=ADVANCED_FACE('PartBody',(#148),#130,.F.) ;
#180=ADVANCED_FACE('PartBody',(#179),#154,.F.) ;
#215=ADVANCED_FACE('PartBody',(#214),#185,.T.) ;
#246=ADVANCED_FACE('PartBody',(#245),#220,.F.) ;
#265=ADVANCED_FACE('PartBody',(#264),#251,.F.) ;
#284=ADVANCED_FACE('PartBody',(#283),#270,.T.) ;
#296=ADVANCED_FACE('PartBody',(#295),#289,.T.) ;
#4=APPLICATION_PROTOCOL_DEFINITION('international standard','automotive_design',2001,#1) ;
#186=B_SPLINE_CURVE_WITH_KNOTS('',3,(#187,#188,#189,#190),.UNSPECIFIED.,.F.,.U.,(4,4),(2.04895941715,6.11033816072),.UNSPECIFIED.) ;
#194=B_SPLINE_CURVE_WITH_KNOTS('',3,(#195,#196,#197,#198),.UNSPECIFIED.,.F.,.U.,(4,4),(2.04895941728,6.11033816131),.UNSPECIFIED.) ;
#252=B_SPLINE_CURVE_WITH_KNOTS('',3,(#253,#254,#255,#256),.UNSPECIFIED.,.F.,.U.,(4,4),(0.,6.106712572),.UNSPECIFIED.) ;
#271=B_SPLINE_CURVE_WITH_KNOTS('',3,(#272,#273,#274,#275),.UNSPECIFIED.,.F.,.U.,(4,4),(0.,6.106712572),.UNSPECIFIED.) ;
#21=MANIFOLD_SOLID_BREP('PartBody',#30) ;
#39=CIRCLE('generated circle',#38,25.) ;
#55=CIRCLE('generated circle',#54,5.) ;
#110=CIRCLE('generated circle',#109,5.) ;
#165=CIRCLE('generated circle',#164,8.) ;
#205=CIRCLE('generated circle',#204,25.) ;
#224=CIRCLE('generated circle',#223,24.) ;
#22=COLOUR_RGB('Colour',0.823529411765,0.823529411765,1.) ;
#154=CONICAL_SURFACE('Cone',#153,0.,0.785398163397) ;
#289=CONICAL_SURFACE('Cone',#288,0.,0.785398163397) ;
#106=CYLINDRICAL_SURFACE('generated cylinder',#105,5.) ;
#185=CYLINDRICAL_SURFACE('generated cylinder',#184,25.) ;
#44=EDGE_CURVE('',#41,#43,#39,.T.) ;
#51=EDGE_CURVE('',#43,#50,#48,.T.) ;
#58=EDGE_CURVE('',#50,#57,#55,.F.) ;
#63=EDGE_CURVE('',#57,#41,#62,.F.) ;
#82=EDGE_CURVE('',#81,#50,#79,.T.) ;
#89=EDGE_CURVE('',#88,#43,#86,.T.) ;
#94=EDGE_CURVE('',#88,#81,#93,.T.) ;
#113=EDGE_CURVE('',#81,#112,#110,.F.) ;
#118=EDGE_CURVE('',#112,#57,#117,.T.) ;
#137=EDGE_CURVE('',#112,#136,#134,.F.) ;
#142=EDGE_CURVE('',#136,#41,#141,.T.) ;
#161=EDGE_CURVE('',#81,#160,#158,.T.) ;
#168=EDGE_CURVE('',#160,#167,#165,.F.) ;
#173=EDGE_CURVE('',#112,#167,#172,.T.) ;
#193=EDGE_CURVE('',#88,#192,#186,.F.) ;
#201=EDGE_CURVE('',#200,#136,#194,.T.) ;
#206=EDGE_CURVE('',#200,#192,#205,.T.) ;
#229=EDGE_CURVE('',#226,#228,#224,.T.) ;
#234=EDGE_CURVE('',#167,#226,#233,.F.) ;
#239=EDGE_CURVE('',#228,#160,#238,.T.) ;
#257=EDGE_CURVE('',#200,#226,#252,.F.) ;
#276=EDGE_CURVE('',#228,#192,#271,.T.) ;
#64=EDGE_LOOP('',(#65,#66,#67,#68)) ;
#95=EDGE_LOOP('',(#96,#97,#98,#99)) ;
#119=EDGE_LOOP('',(#120,#121,#122,#123)) ;
#143=EDGE_LOOP('',(#144,#145,#146,#147)) ;
#174=EDGE_LOOP('',(#175,#176,#177,#178)) ;
#207=EDGE_LOOP('',(#208,#209,#210,#211,#212,#213)) ;
#240=EDGE_LOOP('',(#241,#242,#243,#244)) ;
#258=EDGE_LOOP('',(#259,#260,#261,#262,#263)) ;
#277=EDGE_LOOP('',(#278,#279,#280,#281,#282)) ;
#290=EDGE_LOOP('',(#291,#292,#293,#294)) ;
#69=FACE_OUTER_BOUND('',#64,.T.) ;
#100=FACE_OUTER_BOUND('',#95,.T.) ;
#124=FACE_OUTER_BOUND('',#119,.T.) ;
#148=FACE_OUTER_BOUND('',#143,.T.) ;
#179=FACE_OUTER_BOUND('',#174,.T.) ;
#214=FACE_OUTER_BOUND('',#207,.T.) ;
#245=FACE_OUTER_BOUND('',#240,.T.) ;
#264=FACE_OUTER_BOUND('',#258,.T.) ;
#283=FACE_OUTER_BOUND('',#277,.T.) ;
#295=FACE_OUTER_BOUND('',#290,.T.) ;
#48=LINE('Line',#45,#47) ;
#62=LINE('Line',#59,#61) ;
#79=LINE('Line',#76,#78) ;
#86=LINE('Line',#83,#85) ;
#93=LINE('Line',#90,#92) ;
#117=LINE('Line',#114,#116) ;
#134=LINE('Line',#131,#133) ;
#141=LINE('Line',#138,#140) ;
#158=LINE('Line',#155,#157) ;
#172=LINE('Line',#169,#171) ;
#233=LINE('Line',#230,#232) ;
#238=LINE('Line',#235,#237) ;
#35=PLANE('',#34) ;
#75=PLANE('',#74) ;
#130=PLANE('',#129) ;
#220=PLANE('',#219) ;
#251=PLANE('',#250) ;
#270=PLANE('',#269) ;
#9=PRODUCT_CATEGORY_RELATIONSHIP(' ',' ',#7,#8) ;
#6=PRODUCT_DEFINITION_FORMATION_WITH_SPECIFIED_SOURCE('',' ',#5,.NOT_KNOWN.) ;
#20=SHAPE_DEFINITION_REPRESENTATION(#11,#19) ;
#41=VERTEX_POINT('',#40) ;
#43=VERTEX_POINT('',#42) ;
#50=VERTEX_POINT('',#49) ;
#57=VERTEX_POINT('',#56) ;
#81=VERTEX_POINT('',#80) ;
#88=VERTEX_POINT('',#87) ;
#112=VERTEX_POINT('',#111) ;
#136=VERTEX_POINT('',#135) ;
#160=VERTEX_POINT('',#159) ;
#167=VERTEX_POINT('',#166) ;
#192=VERTEX_POINT('',#191) ;
#200=VERTEX_POINT('',#199) ;
#226=VERTEX_POINT('',#225) ;
#228=VERTEX_POINT('',#227) ;
#12=(LENGTH_UNIT()NAMED_UNIT(*)SI_UNIT(.MILLI.,.METRE.)) ;
#13=(NAMED_UNIT(*)PLANE_ANGLE_UNIT()SI_UNIT($,.RADIAN.)) ;
#14=(NAMED_UNIT(*)SI_UNIT($,.STERADIAN.)SOLID_ANGLE_UNIT()) ;
#16=(GEOMETRIC_REPRESENTATION_CONTEXT(3)GLOBAL_UNCERTAINTY_ASSIGNED_CONTEXT((#15))GLOBAL_UNIT_ASSIGNED_CONTEXT((#12,#13,#14))REPRESENTATION_CONTEXT(' ',' ')) ;
ENDSEC;
END-ISO-10303-21;
