ISO-10303-21;
HEADER;
FILE_DESCRIPTION(('CATIA V5 STEP Exchange'),'2;1');

FILE_NAME('C:\\ENTREPRISE\\LOCAL\\Eoliene\\CAO\\EOLX1.3 Rotor 3 pales Vilebrequin & Excentricite de Battement\\EOLX1.3-D-111-002_A.stp','2020-01-30T22:21:58+00:00',('none'),('none'),'CATIA Version 5 Release 21 GA (IN-10)','CATIA V5 STEP AP203','none');

FILE_SCHEMA(('CONFIG_CONTROL_DESIGN'));

ENDSEC;
/* file written by CATIA V5R21 */
DATA;
#5=PRODUCT('EOLX1.3-D-111-002_A','','',(#2)) ;
#1=APPLICATION_CONTEXT('configuration controlled 3D design of mechanical parts and assemblies') ;
#14=PRODUCT_DEFINITION('',' ',#6,#3) ;
#16=SECURITY_CLASSIFICATION(' ',' ',#15) ;
#15=SECURITY_CLASSIFICATION_LEVEL('unclassified') ;
#47=CARTESIAN_POINT(' ',(0.,0.,0.)) ;
#52=CARTESIAN_POINT('Axis2P3D Location',(0.,0.,1.)) ;
#57=CARTESIAN_POINT('Axis2P3D Location',(0.,0.,-9.7699626167E-015)) ;
#61=CARTESIAN_POINT('Vertex',(5.99281923255,10.9697820236,-9.7699626167E-015)) ;
#63=CARTESIAN_POINT('Vertex',(-5.99281923255,-10.9697820236,-9.7699626167E-015)) ;
#66=CARTESIAN_POINT('Line Origine',(5.99281923255,10.9697820236,1.)) ;
#70=CARTESIAN_POINT('Vertex',(5.99281923255,10.9697820236,2.)) ;
#73=CARTESIAN_POINT('Axis2P3D Location',(0.,0.,2.)) ;
#77=CARTESIAN_POINT('Vertex',(-5.99281923255,-10.9697820236,2.)) ;
#80=CARTESIAN_POINT('Line Origine',(-5.99281923255,-10.9697820236,1.)) ;
#92=CARTESIAN_POINT('Axis2P3D Location',(0.,0.,-9.7699626167E-015)) ;
#97=CARTESIAN_POINT('Axis2P3D Location',(0.,0.,2.)) ;
#109=CARTESIAN_POINT('Axis2P3D Location',(0.,0.,0.5)) ;
#114=CARTESIAN_POINT('Axis2P3D Location',(0.,0.,2.)) ;
#118=CARTESIAN_POINT('Vertex',(4.3627724013,7.9860013132,2.)) ;
#120=CARTESIAN_POINT('Vertex',(-4.3627724013,-7.9860013132,2.)) ;
#123=CARTESIAN_POINT('Line Origine',(4.00320324735,7.32781439178,1.25)) ;
#127=CARTESIAN_POINT('Vertex',(3.64363409339,6.66962747037,0.5)) ;
#130=CARTESIAN_POINT('Axis2P3D Location',(0.,0.,0.5)) ;
#134=CARTESIAN_POINT('Vertex',(-3.64363409339,-6.66962747037,0.5)) ;
#137=CARTESIAN_POINT('Line Origine',(-4.00320324735,-7.32781439178,1.25)) ;
#149=CARTESIAN_POINT('Axis2P3D Location',(0.,0.,2.)) ;
#154=CARTESIAN_POINT('Axis2P3D Location',(0.,0.,0.5)) ;
#166=CARTESIAN_POINT('Axis2P3D Location',(0.,0.,1.)) ;
#171=CARTESIAN_POINT('Line Origine',(3.64363409339,6.66962747037,0.25)) ;
#175=CARTESIAN_POINT('Vertex',(3.64363409339,6.66962747037,0.)) ;
#178=CARTESIAN_POINT('Axis2P3D Location',(0.,0.,0.)) ;
#182=CARTESIAN_POINT('Vertex',(-3.64363409339,-6.66962747037,0.)) ;
#185=CARTESIAN_POINT('Line Origine',(-3.64363409339,-6.66962747037,0.25)) ;
#197=CARTESIAN_POINT('Axis2P3D Location',(0.,0.,0.)) ;
#209=CARTESIAN_POINT('Axis2P3D Location',(0.,12.5,0.)) ;
#223=CARTESIAN_POINT('Axis2P3D Location',(0.,9.1,2.)) ;
#240=CARTESIAN_POINT('Axis2P3D Location',(0.,0.,0.)) ;
#53=DIRECTION('Axis2P3D Direction',(0.,0.,-1.)) ;
#54=DIRECTION('Axis2P3D XDirection',(0.479425538604,0.87758256189,0.)) ;
#58=DIRECTION('Axis2P3D Direction',(0.,0.,-1.)) ;
#67=DIRECTION('Vector Direction',(0.,0.,-1.)) ;
#74=DIRECTION('Axis2P3D Direction',(0.,0.,-1.)) ;
#81=DIRECTION('Vector Direction',(0.,0.,-1.)) ;
#93=DIRECTION('Axis2P3D Direction',(0.,0.,-1.)) ;
#98=DIRECTION('Axis2P3D Direction',(0.,0.,-1.)) ;
#110=DIRECTION('Axis2P3D Direction',(-0.,-0.,1.)) ;
#111=DIRECTION('Axis2P3D XDirection',(0.479425538604,0.87758256189,0.)) ;
#115=DIRECTION('Axis2P3D Direction',(-0.,0.,1.)) ;
#124=DIRECTION('Vector Direction',(0.339005049421,0.620544580564,0.707106781187)) ;
#131=DIRECTION('Axis2P3D Direction',(-0.,0.,1.)) ;
#138=DIRECTION('Vector Direction',(-0.339005049421,-0.620544580564,0.707106781187)) ;
#150=DIRECTION('Axis2P3D Direction',(-0.,0.,1.)) ;
#155=DIRECTION('Axis2P3D Direction',(-0.,0.,1.)) ;
#167=DIRECTION('Axis2P3D Direction',(0.,0.,-1.)) ;
#168=DIRECTION('Axis2P3D XDirection',(0.479425538604,0.87758256189,0.)) ;
#172=DIRECTION('Vector Direction',(0.,0.,-1.)) ;
#179=DIRECTION('Axis2P3D Direction',(0.,0.,-1.)) ;
#186=DIRECTION('Vector Direction',(0.,0.,-1.)) ;
#198=DIRECTION('Axis2P3D Direction',(0.,0.,-1.)) ;
#210=DIRECTION('Axis2P3D Direction',(0.,0.,-1.)) ;
#211=DIRECTION('Axis2P3D XDirection',(1.,0.,0.)) ;
#224=DIRECTION('Axis2P3D Direction',(0.,0.,-1.)) ;
#225=DIRECTION('Axis2P3D XDirection',(1.,0.,0.)) ;
#241=DIRECTION('Axis2P3D Direction',(0.,0.,1.)) ;
#242=DIRECTION('Axis2P3D XDirection',(1.,0.,0.)) ;
#48=AXIS2_PLACEMENT_3D(' ',#47,$,$) ;
#55=AXIS2_PLACEMENT_3D('Cylinder Axis2P3D',#52,#53,#54) ;
#59=AXIS2_PLACEMENT_3D('Circle Axis2P3D',#57,#58,$) ;
#75=AXIS2_PLACEMENT_3D('Circle Axis2P3D',#73,#74,$) ;
#94=AXIS2_PLACEMENT_3D('Circle Axis2P3D',#92,#93,$) ;
#99=AXIS2_PLACEMENT_3D('Circle Axis2P3D',#97,#98,$) ;
#112=AXIS2_PLACEMENT_3D('Cone Axis2P3D',#109,#110,#111) ;
#116=AXIS2_PLACEMENT_3D('Circle Axis2P3D',#114,#115,$) ;
#132=AXIS2_PLACEMENT_3D('Circle Axis2P3D',#130,#131,$) ;
#151=AXIS2_PLACEMENT_3D('Circle Axis2P3D',#149,#150,$) ;
#156=AXIS2_PLACEMENT_3D('Circle Axis2P3D',#154,#155,$) ;
#169=AXIS2_PLACEMENT_3D('Cylinder Axis2P3D',#166,#167,#168) ;
#180=AXIS2_PLACEMENT_3D('Circle Axis2P3D',#178,#179,$) ;
#199=AXIS2_PLACEMENT_3D('Circle Axis2P3D',#197,#198,$) ;
#212=AXIS2_PLACEMENT_3D('Plane Axis2P3D',#209,#210,#211) ;
#226=AXIS2_PLACEMENT_3D('Plane Axis2P3D',#223,#224,#225) ;
#243=AXIS2_PLACEMENT_3D('Absolute Axis System',#240,#241,#242) ;
#40=PRODUCT_DEFINITION_SHAPE(' ',' ',#14) ;
#31=APPROVAL_PERSON_ORGANIZATION(#25,#21,#19) ;
#25=PERSON_AND_ORGANIZATION(#22,#23) ;
#22=PERSON(' ',' ',' ',$,$,$) ;
#23=ORGANIZATION(' ',' ',' ') ;
#21=APPROVAL(#20,' ') ;
#20=APPROVAL_STATUS('not_yet_approved') ;
#19=APPROVAL_ROLE('APPROVER') ;
#13=DATE_AND_TIME(#11,#12) ;
#12=LOCAL_TIME(23,21,58.,#10) ;
#10=COORDINATED_UNIVERSAL_TIME_OFFSET(0,0,.AHEAD.) ;
#86=ORIENTED_EDGE('',*,*,#65,.F.) ;
#87=ORIENTED_EDGE('',*,*,#72,.T.) ;
#88=ORIENTED_EDGE('',*,*,#79,.T.) ;
#89=ORIENTED_EDGE('',*,*,#84,.F.) ;
#103=ORIENTED_EDGE('',*,*,#96,.F.) ;
#104=ORIENTED_EDGE('',*,*,#84,.T.) ;
#105=ORIENTED_EDGE('',*,*,#101,.T.) ;
#106=ORIENTED_EDGE('',*,*,#72,.F.) ;
#143=ORIENTED_EDGE('',*,*,#122,.F.) ;
#144=ORIENTED_EDGE('',*,*,#129,.T.) ;
#145=ORIENTED_EDGE('',*,*,#136,.T.) ;
#146=ORIENTED_EDGE('',*,*,#141,.F.) ;
#160=ORIENTED_EDGE('',*,*,#153,.F.) ;
#161=ORIENTED_EDGE('',*,*,#141,.T.) ;
#162=ORIENTED_EDGE('',*,*,#158,.T.) ;
#163=ORIENTED_EDGE('',*,*,#129,.F.) ;
#191=ORIENTED_EDGE('',*,*,#136,.F.) ;
#192=ORIENTED_EDGE('',*,*,#177,.T.) ;
#193=ORIENTED_EDGE('',*,*,#184,.T.) ;
#194=ORIENTED_EDGE('',*,*,#189,.F.) ;
#203=ORIENTED_EDGE('',*,*,#158,.F.) ;
#204=ORIENTED_EDGE('',*,*,#189,.T.) ;
#205=ORIENTED_EDGE('',*,*,#201,.T.) ;
#206=ORIENTED_EDGE('',*,*,#177,.F.) ;
#215=ORIENTED_EDGE('',*,*,#96,.T.) ;
#216=ORIENTED_EDGE('',*,*,#65,.T.) ;
#219=ORIENTED_EDGE('',*,*,#184,.F.) ;
#220=ORIENTED_EDGE('',*,*,#201,.F.) ;
#229=ORIENTED_EDGE('',*,*,#79,.F.) ;
#230=ORIENTED_EDGE('',*,*,#101,.F.) ;
#233=ORIENTED_EDGE('',*,*,#153,.T.) ;
#234=ORIENTED_EDGE('',*,*,#122,.T.) ;
#221=FACE_BOUND('',#218,.T.) ;
#235=FACE_BOUND('',#232,.T.) ;
#51=CLOSED_SHELL('Closed Shell',(#91,#108,#148,#165,#196,#208,#222,#236)) ;
#68=VECTOR('Line Direction',#67,1.) ;
#82=VECTOR('Line Direction',#81,1.) ;
#125=VECTOR('Line Direction',#124,1.) ;
#139=VECTOR('Line Direction',#138,1.) ;
#173=VECTOR('Line Direction',#172,1.) ;
#187=VECTOR('Line Direction',#186,1.) ;
#238=ADVANCED_BREP_SHAPE_REPRESENTATION('NONE',(#237),#46) ;
#49=SHAPE_REPRESENTATION(' ',(#48),#46) ;
#91=ADVANCED_FACE('PartBody',(#90),#56,.T.) ;
#108=ADVANCED_FACE('PartBody',(#107),#56,.T.) ;
#148=ADVANCED_FACE('PartBody',(#147),#113,.F.) ;
#165=ADVANCED_FACE('PartBody',(#164),#113,.F.) ;
#196=ADVANCED_FACE('PartBody',(#195),#170,.F.) ;
#208=ADVANCED_FACE('PartBody',(#207),#170,.F.) ;
#222=ADVANCED_FACE('PartBody',(#217,#221),#213,.T.) ;
#236=ADVANCED_FACE('PartBody',(#231,#235),#227,.F.) ;
#4=APPLICATION_PROTOCOL_DEFINITION('international standard','config_control_design',1994,#1) ;
#32=APPROVAL_DATE_TIME(#13,#21) ;
#237=MANIFOLD_SOLID_BREP('PartBody',#51) ;
#11=CALENDAR_DATE(2020,30,1) ;
#30=CC_DESIGN_APPROVAL(#21,(#16,#6,#14)) ;
#18=CC_DESIGN_DATE_AND_TIME_ASSIGNMENT(#13,#17,(#16)) ;
#29=CC_DESIGN_DATE_AND_TIME_ASSIGNMENT(#13,#28,(#14)) ;
#17=DATE_TIME_ROLE('classification_date') ;
#28=DATE_TIME_ROLE('creation_date') ;
#27=CC_DESIGN_PERSON_AND_ORGANIZATION_ASSIGNMENT(#25,#26,(#16)) ;
#33=CC_DESIGN_PERSON_AND_ORGANIZATION_ASSIGNMENT(#25,#34,(#6)) ;
#35=CC_DESIGN_PERSON_AND_ORGANIZATION_ASSIGNMENT(#25,#36,(#6,#14)) ;
#37=CC_DESIGN_PERSON_AND_ORGANIZATION_ASSIGNMENT(#25,#38,(#5)) ;
#26=PERSON_AND_ORGANIZATION_ROLE('classification_officer') ;
#34=PERSON_AND_ORGANIZATION_ROLE('design_supplier') ;
#36=PERSON_AND_ORGANIZATION_ROLE('creator') ;
#38=PERSON_AND_ORGANIZATION_ROLE('design_owner') ;
#39=CC_DESIGN_SECURITY_CLASSIFICATION(#16,(#6)) ;
#60=CIRCLE('generated circle',#59,12.5) ;
#76=CIRCLE('generated circle',#75,12.5) ;
#95=CIRCLE('generated circle',#94,12.5) ;
#100=CIRCLE('generated circle',#99,12.5) ;
#117=CIRCLE('generated circle',#116,9.1) ;
#133=CIRCLE('generated circle',#132,7.6) ;
#152=CIRCLE('generated circle',#151,9.1) ;
#157=CIRCLE('generated circle',#156,7.6) ;
#181=CIRCLE('generated circle',#180,7.6) ;
#200=CIRCLE('generated circle',#199,7.6) ;
#113=CONICAL_SURFACE('Cone',#112,7.6,0.785398163397) ;
#239=SHAPE_REPRESENTATION_RELATIONSHIP(' ',' ',#49,#238) ;
#56=CYLINDRICAL_SURFACE('generated cylinder',#55,12.5) ;
#170=CYLINDRICAL_SURFACE('generated cylinder',#169,7.6) ;
#3=DESIGN_CONTEXT(' ',#1,'design') ;
#65=EDGE_CURVE('',#62,#64,#60,.T.) ;
#72=EDGE_CURVE('',#62,#71,#69,.F.) ;
#79=EDGE_CURVE('',#71,#78,#76,.T.) ;
#84=EDGE_CURVE('',#64,#78,#83,.F.) ;
#96=EDGE_CURVE('',#64,#62,#95,.T.) ;
#101=EDGE_CURVE('',#78,#71,#100,.T.) ;
#122=EDGE_CURVE('',#119,#121,#117,.F.) ;
#129=EDGE_CURVE('',#119,#128,#126,.F.) ;
#136=EDGE_CURVE('',#128,#135,#133,.F.) ;
#141=EDGE_CURVE('',#121,#135,#140,.F.) ;
#153=EDGE_CURVE('',#121,#119,#152,.F.) ;
#158=EDGE_CURVE('',#135,#128,#157,.F.) ;
#177=EDGE_CURVE('',#128,#176,#174,.T.) ;
#184=EDGE_CURVE('',#176,#183,#181,.T.) ;
#189=EDGE_CURVE('',#135,#183,#188,.T.) ;
#201=EDGE_CURVE('',#183,#176,#200,.T.) ;
#85=EDGE_LOOP('',(#86,#87,#88,#89)) ;
#102=EDGE_LOOP('',(#103,#104,#105,#106)) ;
#142=EDGE_LOOP('',(#143,#144,#145,#146)) ;
#159=EDGE_LOOP('',(#160,#161,#162,#163)) ;
#190=EDGE_LOOP('',(#191,#192,#193,#194)) ;
#202=EDGE_LOOP('',(#203,#204,#205,#206)) ;
#214=EDGE_LOOP('',(#215,#216)) ;
#218=EDGE_LOOP('',(#219,#220)) ;
#228=EDGE_LOOP('',(#229,#230)) ;
#232=EDGE_LOOP('',(#233,#234)) ;
#90=FACE_OUTER_BOUND('',#85,.T.) ;
#107=FACE_OUTER_BOUND('',#102,.T.) ;
#147=FACE_OUTER_BOUND('',#142,.T.) ;
#164=FACE_OUTER_BOUND('',#159,.T.) ;
#195=FACE_OUTER_BOUND('',#190,.T.) ;
#207=FACE_OUTER_BOUND('',#202,.T.) ;
#217=FACE_OUTER_BOUND('',#214,.T.) ;
#231=FACE_OUTER_BOUND('',#228,.T.) ;
#45=UNCERTAINTY_MEASURE_WITH_UNIT(LENGTH_MEASURE(0.005),#41,'distance_accuracy_value','CONFUSED CURVE UNCERTAINTY') ;
#69=LINE('Line',#66,#68) ;
#83=LINE('Line',#80,#82) ;
#126=LINE('Line',#123,#125) ;
#140=LINE('Line',#137,#139) ;
#174=LINE('Line',#171,#173) ;
#188=LINE('Line',#185,#187) ;
#2=MECHANICAL_CONTEXT(' ',#1,'mechanical') ;
#24=PERSONAL_ADDRESS(' ',' ',' ',' ',' ',' ',' ',' ',' ',' ',' ',' ',(#22),' ') ;
#213=PLANE('',#212) ;
#227=PLANE('',#226) ;
#43=PLANE_ANGLE_MEASURE_WITH_UNIT(PLANE_ANGLE_MEASURE(0.0174532925199),#42) ;
#7=PRODUCT_CATEGORY('part',$) ;
#9=PRODUCT_CATEGORY_RELATIONSHIP(' ',' ',#7,#8) ;
#6=PRODUCT_DEFINITION_FORMATION_WITH_SPECIFIED_SOURCE('',' ',#5,.NOT_KNOWN.) ;
#8=PRODUCT_RELATED_PRODUCT_CATEGORY('detail',$,(#5)) ;
#50=SHAPE_DEFINITION_REPRESENTATION(#40,#49) ;
#62=VERTEX_POINT('',#61) ;
#64=VERTEX_POINT('',#63) ;
#71=VERTEX_POINT('',#70) ;
#78=VERTEX_POINT('',#77) ;
#119=VERTEX_POINT('',#118) ;
#121=VERTEX_POINT('',#120) ;
#128=VERTEX_POINT('',#127) ;
#135=VERTEX_POINT('',#134) ;
#176=VERTEX_POINT('',#175) ;
#183=VERTEX_POINT('',#182) ;
#41=(LENGTH_UNIT()NAMED_UNIT(*)SI_UNIT(.MILLI.,.METRE.)) ;
#42=(NAMED_UNIT(*)PLANE_ANGLE_UNIT()SI_UNIT($,.RADIAN.)) ;
#44=(NAMED_UNIT(*)SI_UNIT($,.STERADIAN.)SOLID_ANGLE_UNIT()) ;
#46=(GEOMETRIC_REPRESENTATION_CONTEXT(3)GLOBAL_UNCERTAINTY_ASSIGNED_CONTEXT((#45))GLOBAL_UNIT_ASSIGNED_CONTEXT((#41,#42,#44))REPRESENTATION_CONTEXT(' ',' ')) ;
ENDSEC;
END-ISO-10303-21;
