ISO-10303-21;
HEADER;
FILE_DESCRIPTION (( 'STEP AP214' ),
    '1' );
FILE_NAME ('20-006-UPL-003.STEP',
    '2020-06-17T14:05:06',
    ( '' ),
    ( '' ),
    'SwSTEP 2.0',
    'SolidWorks 2020',
    '' );
FILE_SCHEMA (( 'AUTOMOTIVE_DESIGN' ));
ENDSEC;

DATA;
#1 = CARTESIAN_POINT ( 'NONE',  ( -3.851859888774471706E-31, 31.25000000000000000, 30.00000000000000000 ) ) ;
#2 = ORIENTED_EDGE ( 'NONE', *, *, #40, .F. ) ;
#3 = CIRCLE ( 'NONE', #248, 5.499999999999992895 ) ;
#4 = EDGE_CURVE ( 'NONE', #86, #136, #36, .T. ) ;
#5 = UNCERTAINTY_MEASURE_WITH_UNIT (LENGTH_MEASURE( 1.000000000000000082E-05 ), #179, 'distance_accuracy_value', 'NONE');
#6 = ORIENTED_EDGE ( 'NONE', *, *, #164, .T. ) ;
#7 = LINE ( 'NONE', #33, #63 ) ;
#8 = ORIENTED_EDGE ( 'NONE', *, *, #240, .F. ) ;
#9 = VECTOR ( 'NONE', #158, 1000.000000000000000 ) ;
#10 =( NAMED_UNIT ( * ) PLANE_ANGLE_UNIT ( ) SI_UNIT ( $, .RADIAN. ) );
#11 = EDGE_LOOP ( 'NONE', ( #53, #250, #209, #320 ) ) ;
#12 = ORIENTED_EDGE ( 'NONE', *, *, #54, .F. ) ;
#13 = LINE ( 'NONE', #67, #144 ) ;
#14 = DIRECTION ( 'NONE',  ( -0.0000000000000000000, 0.0000000000000000000, -1.000000000000000000 ) ) ;
#15 = PLANE ( 'NONE',  #72 ) ;
#16 = CARTESIAN_POINT ( 'NONE',  ( -1.224646799147351975E-16, 0.0000000000000000000, 15.00000000000000000 ) ) ;
#17 = STYLED_ITEM ( 'NONE', ( #252 ), #20 ) ;
#18 = LINE ( 'NONE', #127, #43 ) ;
#19 = DIRECTION ( 'NONE',  ( -0.0000000000000000000, 0.0000000000000000000, -1.000000000000000000 ) ) ;
#20 = MANIFOLD_SOLID_BREP ( 'Dégagement M101', #202 ) ;
#21 = CARTESIAN_POINT ( 'NONE',  ( -39.99999999999999289, 25.25000000000001066, 30.00000000000000000 ) ) ;
#22 = ORIENTED_EDGE ( 'NONE', *, *, #133, .T. ) ;
#23 = CARTESIAN_POINT ( 'NONE',  ( 0.0000000000000000000, 0.0000000000000000000, 0.0000000000000000000 ) ) ;
#24 = ORIENTED_EDGE ( 'NONE', *, *, #234, .T. ) ;
#25 = ORIENTED_EDGE ( 'NONE', *, *, #168, .T. ) ;
#26 = DIRECTION ( 'NONE',  ( 0.0000000000000000000, 0.0000000000000000000, -1.000000000000000000 ) ) ;
#27 = VERTEX_POINT ( 'NONE', #223 ) ;
#28 = EDGE_CURVE ( 'NONE', #86, #59, #13, .T. ) ;
#29 = CARTESIAN_POINT ( 'NONE',  ( -3.851859888774471706E-31, -31.25000000000000000, 30.00000000000000000 ) ) ;
#30 = ORIENTED_EDGE ( 'NONE', *, *, #255, .T. ) ;
#31 = AXIS2_PLACEMENT_3D ( 'NONE', #143, #65, #39 ) ;
#32 =( NAMED_UNIT ( * ) SI_UNIT ( $, .STERADIAN. ) SOLID_ANGLE_UNIT ( ) );
#33 = CARTESIAN_POINT ( 'NONE',  ( -39.99999999999999289, -25.24999999999996447, 30.00000000000000000 ) ) ;
#34 = ORIENTED_EDGE ( 'NONE', *, *, #28, .T. ) ;
#35 = DIRECTION ( 'NONE',  ( 0.0000000000000000000, 0.0000000000000000000, 1.000000000000000000 ) ) ;
#36 = LINE ( 'NONE', #142, #103 ) ;
#37 = AXIS2_PLACEMENT_3D ( 'NONE', #124, #256, #205 ) ;
#38 = SURFACE_STYLE_USAGE ( .BOTH. , #219 ) ;
#39 = DIRECTION ( 'NONE',  ( 0.0000000000000000000, 0.0000000000000000000, -1.000000000000000000 ) ) ;
#40 = EDGE_CURVE ( 'NONE', #134, #188, #196, .T. ) ;
#41 = CARTESIAN_POINT ( 'NONE',  ( -33.99999999999998579, -31.24999999999999645, 0.0000000000000000000 ) ) ;
#42 = APPLICATION_CONTEXT ( 'automotive_design' ) ;
#43 = VECTOR ( 'NONE', #254, 1000.000000000000000 ) ;
#44 =( GEOMETRIC_REPRESENTATION_CONTEXT ( 3 ) GLOBAL_UNCERTAINTY_ASSIGNED_CONTEXT ( ( #110 ) ) GLOBAL_UNIT_ASSIGNED_CONTEXT ( ( #221, #10, #32 ) ) REPRESENTATION_CONTEXT ( 'NONE', 'WORKASPACE' ) );
#45 = LINE ( 'NONE', #332, #98 ) ;
#46 = CARTESIAN_POINT ( 'NONE',  ( -33.99999999999998579, 31.24999999999999645, 30.00000000000000000 ) ) ;
#47 = EDGE_CURVE ( 'NONE', #27, #336, #318, .T. ) ;
#48 = DIRECTION ( 'NONE',  ( 0.0000000000000000000, 0.0000000000000000000, 1.000000000000000000 ) ) ;
#49 = PRODUCT ( '20-006-UPL-003', '20-006-UPL-003', '', ( #141 ) ) ;
#50 = VECTOR ( 'NONE', #309, 1000.000000000000000 ) ;
#51 = DIRECTION ( 'NONE',  ( 1.000000000000000000, -0.0000000000000000000, -0.0000000000000000000 ) ) ;
#52 = CYLINDRICAL_SURFACE ( 'NONE', #243, 5.499999999999992895 ) ;
#53 = ORIENTED_EDGE ( 'NONE', *, *, #234, .F. ) ;
#54 = EDGE_CURVE ( 'NONE', #183, #134, #166, .T. ) ;
#55 = LINE ( 'NONE', #109, #165 ) ;
#56 = AXIS2_PLACEMENT_3D ( 'NONE', #170, #222, #246 ) ;
#57 = EDGE_LOOP ( 'NONE', ( #12, #339, #262, #108 ) ) ;
#58 = CARTESIAN_POINT ( 'NONE',  ( -33.99999999999998579, 31.24999999999999645, 30.00000000000000000 ) ) ;
#59 = VERTEX_POINT ( 'NONE', #145 ) ;
#60 = ADVANCED_FACE ( 'NONE', ( #249 ), #247, .T. ) ;
#61 = LINE ( 'NONE', #21, #50 ) ;
#62 = VERTEX_POINT ( 'NONE', #117 ) ;
#63 = VECTOR ( 'NONE', #326, 1000.000000000000000 ) ;
#64 = DIRECTION ( 'NONE',  ( 0.0000000000000000000, 0.0000000000000000000, -1.000000000000000000 ) ) ;
#65 = DIRECTION ( 'NONE',  ( 1.000000000000000000, 0.0000000000000000000, -0.0000000000000000000 ) ) ;
#66 = PRESENTATION_STYLE_ASSIGNMENT (( #193 ) ) ;
#67 = CARTESIAN_POINT ( 'NONE',  ( -39.99999999999999289, 31.24999999999999645, 0.0000000000000000000 ) ) ;
#68 = VECTOR ( 'NONE', #14, 1000.000000000000000 ) ;
#69 = CARTESIAN_POINT ( 'NONE',  ( -32.62499999999993605, 32.62500000000004974, 30.00000000000000000 ) ) ;
#70 = FACE_OUTER_BOUND ( 'NONE', #235, .T. ) ;
#71 = LINE ( 'NONE', #175, #226 ) ;
#72 = AXIS2_PLACEMENT_3D ( 'NONE', #233, #171, #279 ) ;
#73 = EDGE_CURVE ( 'NONE', #59, #188, #7, .T. ) ;
#74 = DIRECTION ( 'NONE',  ( 0.0000000000000000000, 0.0000000000000000000, -1.000000000000000000 ) ) ;
#75 = DIRECTION ( 'NONE',  ( -1.000000000000000000, 0.0000000000000000000, 0.0000000000000000000 ) ) ;
#76 = CARTESIAN_POINT ( 'NONE',  ( -39.99999999999999289, 25.25000000000001066, 30.00000000000000000 ) ) ;
#77 = PRESENTATION_LAYER_ASSIGNMENT (  '', '', ( #17 ) ) ;
#78 = CARTESIAN_POINT ( 'NONE',  ( -3.851859888774471706E-31, -31.25000000000000000, 0.0000000000000000000 ) ) ;
#79 = EDGE_CURVE ( 'NONE', #336, #27, #3, .T. ) ;
#80 = ORIENTED_EDGE ( 'NONE', *, *, #267, .T. ) ;
#81 = LINE ( 'NONE', #58, #89 ) ;
#82 = VERTEX_POINT ( 'NONE', #325 ) ;
#83 = VECTOR ( 'NONE', #327, 1000.000000000000000 ) ;
#84 = EDGE_LOOP ( 'NONE', ( #163, #24, #112, #157, #25, #159 ) ) ;
#85 = DIRECTION ( 'NONE',  ( 1.000000000000000000, -0.0000000000000000000, -0.0000000000000000000 ) ) ;
#86 = VERTEX_POINT ( 'NONE', #194 ) ;
#87 = ORIENTED_EDGE ( 'NONE', *, *, #331, .T. ) ;
#88 = VERTEX_POINT ( 'NONE', #278 ) ;
#89 = VECTOR ( 'NONE', #290, 1000.000000000000000 ) ;
#90 = SURFACE_SIDE_STYLE ('',( #292 ) ) ;
#91 = CARTESIAN_POINT ( 'NONE',  ( -39.99999999999999289, 0.0000000000000000000, 15.00000000000000000 ) ) ;
#92 = ADVANCED_FACE ( 'NONE', ( #122, #303 ), #232, .F. ) ;
#93 = ORIENTED_EDGE ( 'NONE', *, *, #47, .F. ) ;
#94 = DIRECTION ( 'NONE',  ( 0.7071067811865487940, 0.7071067811865463515, -0.0000000000000000000 ) ) ;
#95 = CARTESIAN_POINT ( 'NONE',  ( -3.851859888774471706E-31, -31.25000000000000000, 30.00000000000000000 ) ) ;
#96 = PRODUCT_DEFINITION ( 'UNKNOWN', '', #324, #125 ) ;
#97 = DIRECTION ( 'NONE',  ( 1.000000000000000000, -8.673617379884036705E-17, 0.0000000000000000000 ) ) ;
#98 = VECTOR ( 'NONE', #97, 1000.000000000000000 ) ;
#99 = DIRECTION ( 'NONE',  ( 0.0000000000000000000, 0.0000000000000000000, -1.000000000000000000 ) ) ;
#100 = CARTESIAN_POINT ( 'NONE',  ( -39.99999999999999289, -31.24999999999999645, 0.0000000000000000000 ) ) ;
#101 = LINE ( 'NONE', #1, #231 ) ;
#102 = EDGE_CURVE ( 'NONE', #342, #82, #71, .T. ) ;
#103 = VECTOR ( 'NONE', #94, 1000.000000000000000 ) ;
#104 = ORIENTED_EDGE ( 'NONE', *, *, #192, .T. ) ;
#105 = CARTESIAN_POINT ( 'NONE',  ( -39.99999999999999289, -31.24999999999999645, 30.00000000000000000 ) ) ;
#106 = ORIENTED_EDGE ( 'NONE', *, *, #164, .F. ) ;
#107 = EDGE_CURVE ( 'NONE', #82, #136, #200, .T. ) ;
#108 = ORIENTED_EDGE ( 'NONE', *, *, #331, .F. ) ;
#109 = CARTESIAN_POINT ( 'NONE',  ( -33.99999999999998579, -31.24999999999999645, 0.0000000000000000000 ) ) ;
#110 = UNCERTAINTY_MEASURE_WITH_UNIT (LENGTH_MEASURE( 1.000000000000000082E-05 ), #221, 'distance_accuracy_value', 'NONE');
#111 = CIRCLE ( 'NONE', #305, 5.499999999999996447 ) ;
#112 = ORIENTED_EDGE ( 'NONE', *, *, #148, .T. ) ;
#113 = ORIENTED_EDGE ( 'NONE', *, *, #267, .F. ) ;
#114 = ORIENTED_EDGE ( 'NONE', *, *, #168, .F. ) ;
#115 = ORIENTED_EDGE ( 'NONE', *, *, #255, .F. ) ;
#116 = AXIS2_PLACEMENT_3D ( 'NONE', #105, #268, #244 ) ;
#117 = CARTESIAN_POINT ( 'NONE',  ( -33.99999999999998579, -31.24999999999999645, 30.00000000000000000 ) ) ;
#118 = FILL_AREA_STYLE_COLOUR ( '', #207 ) ;
#119 = CARTESIAN_POINT ( 'NONE',  ( -39.99999999999999289, -25.24999999999996447, 30.00000000000000000 ) ) ;
#120 = CARTESIAN_POINT ( 'NONE',  ( -39.99999999999999289, 31.24999999999999645, 30.00000000000000000 ) ) ;
#121 = UNCERTAINTY_MEASURE_WITH_UNIT (LENGTH_MEASURE( 1.000000000000000082E-05 ), #296, 'distance_accuracy_value', 'NONE');
#122 = FACE_BOUND ( 'NONE', #289, .T. ) ;
#123 = AXIS2_PLACEMENT_3D ( 'NONE', #120, #147, #19 ) ;
#124 = CARTESIAN_POINT ( 'NONE',  ( -33.99999999999998579, -31.24999999999999645, 30.00000000000000000 ) ) ;
#125 = PRODUCT_DEFINITION_CONTEXT ( 'detailed design', #340, 'design' ) ;
#126 = EDGE_CURVE ( 'NONE', #62, #181, #335, .T. ) ;
#127 = CARTESIAN_POINT ( 'NONE',  ( -3.851859888774471706E-31, 31.25000000000000000, 30.00000000000000000 ) ) ;
#128 = CARTESIAN_POINT ( 'NONE',  ( -39.99999999999999289, 6.735557395310435121E-16, 20.49999999999998934 ) ) ;
#129 = AXIS2_PLACEMENT_3D ( 'NONE', #149, #177, #285 ) ;
#130 = VECTOR ( 'NONE', #204, 1000.000000000000000 ) ;
#131 = ADVANCED_BREP_SHAPE_REPRESENTATION ( '20-006-UPL-003', ( #20, #203 ), #178 ) ;
#132 = ORIENTED_EDGE ( 'NONE', *, *, #79, .F. ) ;
#133 = EDGE_CURVE ( 'NONE', #27, #88, #230, .T. ) ;
#134 = VERTEX_POINT ( 'NONE', #76 ) ;
#135 = PLANE ( 'NONE',  #116 ) ;
#136 = VERTEX_POINT ( 'NONE', #302 ) ;
#137 = CARTESIAN_POINT ( 'NONE',  ( -32.62500000000007105, -32.62499999999992184, 30.00000000000000000 ) ) ;
#138 = PRESENTATION_LAYER_ASSIGNMENT (  '', '', ( #337 ) ) ;
#139 = ORIENTED_EDGE ( 'NONE', *, *, #133, .F. ) ;
#140 =( NAMED_UNIT ( * ) PLANE_ANGLE_UNIT ( ) SI_UNIT ( $, .RADIAN. ) );
#141 = PRODUCT_CONTEXT ( 'NONE', #42, 'mechanical' ) ;
#142 = CARTESIAN_POINT ( 'NONE',  ( -39.99999999999999289, 25.25000000000001066, 0.0000000000000000000 ) ) ;
#143 = CARTESIAN_POINT ( 'NONE',  ( -39.99999999999999289, 0.0000000000000000000, 15.00000000000000000 ) ) ;
#144 = VECTOR ( 'NONE', #329, 1000.000000000000000 ) ;
#145 = CARTESIAN_POINT ( 'NONE',  ( -39.99999999999999289, -25.24999999999996447, 0.0000000000000000000 ) ) ;
#146 =( NAMED_UNIT ( * ) SI_UNIT ( $, .STERADIAN. ) SOLID_ANGLE_UNIT ( ) );
#147 = DIRECTION ( 'NONE',  ( 1.000000000000000000, 0.0000000000000000000, -0.0000000000000000000 ) ) ;
#148 = EDGE_CURVE ( 'NONE', #62, #291, #45, .T. ) ;
#149 = CARTESIAN_POINT ( 'NONE',  ( -3.851859888774471706E-31, 31.25000000000000000, 30.00000000000000000 ) ) ;
#150 = PLANE ( 'NONE',  #37 ) ;
#151 = CARTESIAN_POINT ( 'NONE',  ( -3.851859888774471706E-31, -31.25000000000000000, 30.00000000000000000 ) ) ;
#152 = AXIS2_PLACEMENT_3D ( 'NONE', #23, #160, #154 ) ;
#153 = DIRECTION ( 'NONE',  ( 0.0000000000000000000, 1.000000000000000000, 0.0000000000000000000 ) ) ;
#154 = DIRECTION ( 'NONE',  ( 1.000000000000000000, 0.0000000000000000000, 0.0000000000000000000 ) ) ;
#155 = ORIENTED_EDGE ( 'NONE', *, *, #4, .T. ) ;
#156 = CARTESIAN_POINT ( 'NONE',  ( -3.851859888774471706E-31, 31.25000000000000000, 30.00000000000000000 ) ) ;
#157 = ORIENTED_EDGE ( 'NONE', *, *, #313, .T. ) ;
#158 = DIRECTION ( 'NONE',  ( 0.0000000000000000000, 1.000000000000000000, 0.0000000000000000000 ) ) ;
#159 = ORIENTED_EDGE ( 'NONE', *, *, #54, .T. ) ;
#160 = DIRECTION ( 'NONE',  ( -0.0000000000000000000, 0.0000000000000000000, 1.000000000000000000 ) ) ;
#161 = ORIENTED_EDGE ( 'NONE', *, *, #107, .F. ) ;
#162 = FACE_OUTER_BOUND ( 'NONE', #218, .T. ) ;
#163 = ORIENTED_EDGE ( 'NONE', *, *, #40, .T. ) ;
#164 = EDGE_CURVE ( 'NONE', #291, #342, #333, .T. ) ;
#165 = VECTOR ( 'NONE', #211, 1000.000000000000000 ) ;
#166 = LINE ( 'NONE', #69, #272 ) ;
#167 = FILL_AREA_STYLE ('',( #118 ) ) ;
#168 = EDGE_CURVE ( 'NONE', #276, #183, #18, .T. ) ;
#169 = APPLICATION_PROTOCOL_DEFINITION ( 'draft international standard', 'automotive_design', 1998, #340 ) ;
#170 = CARTESIAN_POINT ( 'NONE',  ( 0.0000000000000000000, 0.0000000000000000000, 30.00000000000000000 ) ) ;
#171 = DIRECTION ( 'NONE',  ( 0.7071067811865463515, -0.7071067811865487940, 0.0000000000000000000 ) ) ;
#172 = ADVANCED_FACE ( 'NONE', ( #253 ), #284, .F. ) ;
#173 = DIRECTION ( 'NONE',  ( 1.000000000000000000, -0.0000000000000000000, -0.0000000000000000000 ) ) ;
#174 = COLOUR_RGB ( '',0.2470588235294117752, 0.4117647058823529216, 1.000000000000000000 ) ;
#175 = CARTESIAN_POINT ( 'NONE',  ( -3.851859888774471706E-31, -31.25000000000000000, 0.0000000000000000000 ) ) ;
#176 = FACE_BOUND ( 'NONE', #321, .T. ) ;
#177 = DIRECTION ( 'NONE',  ( 8.673617379884037937E-17, -1.000000000000000000, 0.0000000000000000000 ) ) ;
#178 =( GEOMETRIC_REPRESENTATION_CONTEXT ( 3 ) GLOBAL_UNCERTAINTY_ASSIGNED_CONTEXT ( ( #5 ) ) GLOBAL_UNIT_ASSIGNED_CONTEXT ( ( #179, #287, #208 ) ) REPRESENTATION_CONTEXT ( 'NONE', 'WORKASPACE' ) );
#179 =( LENGTH_UNIT ( ) NAMED_UNIT ( * ) SI_UNIT ( .MILLI., .METRE. ) );
#180 = CARTESIAN_POINT ( 'NONE',  ( -1.224646799147351975E-16, 0.0000000000000000000, 15.00000000000000000 ) ) ;
#181 = VERTEX_POINT ( 'NONE', #41 ) ;
#182 = CARTESIAN_POINT ( 'NONE',  ( -1.224646799147351975E-16, 6.735557395310439065E-16, 20.49999999999999645 ) ) ;
#183 = VERTEX_POINT ( 'NONE', #46 ) ;
#184 = VECTOR ( 'NONE', #173, 1000.000000000000000 ) ;
#185 = FILL_AREA_STYLE ('',( #316 ) ) ;
#186 = ORIENTED_EDGE ( 'NONE', *, *, #198, .T. ) ;
#187 = CARTESIAN_POINT ( 'NONE',  ( 0.0000000000000000000, 0.0000000000000000000, 15.00000000000000000 ) ) ;
#188 = VERTEX_POINT ( 'NONE', #119 ) ;
#189 = ADVANCED_FACE ( 'NONE', ( #330 ), #150, .F. ) ;
#190 = ORIENTED_EDGE ( 'NONE', *, *, #73, .T. ) ;
#191 = AXIS2_PLACEMENT_3D ( 'NONE', #306, #51, #74 ) ;
#192 = EDGE_CURVE ( 'NONE', #88, #269, #111, .T. ) ;
#193 = SURFACE_STYLE_USAGE ( .BOTH. , #90 ) ;
#194 = CARTESIAN_POINT ( 'NONE',  ( -39.99999999999999289, 25.25000000000001066, 0.0000000000000000000 ) ) ;
#195 = EDGE_LOOP ( 'NONE', ( #113, #93, #22, #104 ) ) ;
#196 = LINE ( 'NONE', #298, #83 ) ;
#197 = PLANE ( 'NONE',  #280 ) ;
#198 = EDGE_CURVE ( 'NONE', #181, #342, #228, .T. ) ;
#199 = PRODUCT_DEFINITION_SHAPE ( 'NONE', 'NONE',  #96 ) ;
#200 = LINE ( 'NONE', #283, #258 ) ;
#201 = DIRECTION ( 'NONE',  ( -0.0000000000000000000, -0.0000000000000000000, -1.000000000000000000 ) ) ;
#202 = CLOSED_SHELL ( 'NONE', ( #172, #251, #210, #224, #92, #60, #304, #189, #229, #322 ) ) ;
#203 = AXIS2_PLACEMENT_3D ( 'NONE', #300, #35, #275 ) ;
#204 = DIRECTION ( 'NONE',  ( 1.000000000000000000, -8.673617379884036705E-17, 0.0000000000000000000 ) ) ;
#205 = DIRECTION ( 'NONE',  ( 0.0000000000000000000, 0.0000000000000000000, -1.000000000000000000 ) ) ;
#206 = FACE_OUTER_BOUND ( 'NONE', #312, .T. ) ;
#207 = COLOUR_RGB ( '',0.2470588235294117752, 0.4117647058823529216, 1.000000000000000000 ) ;
#208 =( NAMED_UNIT ( * ) SI_UNIT ( $, .STERADIAN. ) SOLID_ANGLE_UNIT ( ) );
#209 = ORIENTED_EDGE ( 'NONE', *, *, #260, .F. ) ;
#210 = ADVANCED_FACE ( 'NONE', ( #176, #70 ), #197, .F. ) ;
#211 = DIRECTION ( 'NONE',  ( -0.7071067811865459074, 0.7071067811865491270, -0.0000000000000000000 ) ) ;
#212 = ORIENTED_EDGE ( 'NONE', *, *, #102, .F. ) ;
#213 = EDGE_LOOP ( 'NONE', ( #132, #80, #239, #139 ) ) ;
#214 =( GEOMETRIC_REPRESENTATION_CONTEXT ( 3 ) GLOBAL_UNCERTAINTY_ASSIGNED_CONTEXT ( ( #121 ) ) GLOBAL_UNIT_ASSIGNED_CONTEXT ( ( #296, #140, #146 ) ) REPRESENTATION_CONTEXT ( 'NONE', 'WORKASPACE' ) );
#215 = PRODUCT_RELATED_PRODUCT_CATEGORY ( 'part', '', ( #49 ) ) ;
#216 = LINE ( 'NONE', #137, #220 ) ;
#217 = EDGE_LOOP ( 'NONE', ( #242, #237, #114, #30 ) ) ;
#218 = EDGE_LOOP ( 'NONE', ( #225, #317, #186, #106 ) ) ;
#219 = SURFACE_SIDE_STYLE ('',( #277 ) ) ;
#220 = VECTOR ( 'NONE', #341, 1000.000000000000000 ) ;
#221 =( LENGTH_UNIT ( ) NAMED_UNIT ( * ) SI_UNIT ( .MILLI., .METRE. ) );
#222 = DIRECTION ( 'NONE',  ( -0.0000000000000000000, 0.0000000000000000000, 1.000000000000000000 ) ) ;
#223 = CARTESIAN_POINT ( 'NONE',  ( -39.99999999999999289, 0.0000000000000000000, 9.500000000000007105 ) ) ;
#224 = ADVANCED_FACE ( 'NONE', ( #308 ), #281, .F. ) ;
#225 = ORIENTED_EDGE ( 'NONE', *, *, #148, .F. ) ;
#226 = VECTOR ( 'NONE', #153, 1000.000000000000000 ) ;
#227 = DIRECTION ( 'NONE',  ( -1.000000000000000000, -8.673617379884036705E-17, 0.0000000000000000000 ) ) ;
#228 = LINE ( 'NONE', #100, #130 ) ;
#229 = ADVANCED_FACE ( 'NONE', ( #259 ), #15, .F. ) ;
#230 = LINE ( 'NONE', #257, #184 ) ;
#231 = VECTOR ( 'NONE', #241, 1000.000000000000000 ) ;
#232 = PLANE ( 'NONE',  #123 ) ;
#233 = CARTESIAN_POINT ( 'NONE',  ( -39.99999999999999289, 25.25000000000001066, 30.00000000000000000 ) ) ;
#234 = EDGE_CURVE ( 'NONE', #188, #62, #216, .T. ) ;
#235 = EDGE_LOOP ( 'NONE', ( #293, #115, #299, #6 ) ) ;
#236 = VECTOR ( 'NONE', #201, 1000.000000000000000 ) ;
#237 = ORIENTED_EDGE ( 'NONE', *, *, #286, .T. ) ;
#238 = APPLICATION_PROTOCOL_DEFINITION ( 'draft international standard', 'automotive_design', 1998, #42 ) ;
#239 = ORIENTED_EDGE ( 'NONE', *, *, #240, .T. ) ;
#240 = EDGE_CURVE ( 'NONE', #269, #88, #310, .T. ) ;
#241 = DIRECTION ( 'NONE',  ( -0.0000000000000000000, -0.0000000000000000000, -1.000000000000000000 ) ) ;
#242 = ORIENTED_EDGE ( 'NONE', *, *, #107, .T. ) ;
#243 = AXIS2_PLACEMENT_3D ( 'NONE', #187, #294, #261 ) ;
#244 = DIRECTION ( 'NONE',  ( -1.000000000000000000, 8.673617379884037937E-17, 0.0000000000000000000 ) ) ;
#245 = EDGE_LOOP ( 'NONE', ( #34, #190, #2, #87 ) ) ;
#246 = DIRECTION ( 'NONE',  ( 1.000000000000000000, 0.0000000000000000000, 0.0000000000000000000 ) ) ;
#247 = PLANE ( 'NONE',  #56 ) ;
#248 = AXIS2_PLACEMENT_3D ( 'NONE', #91, #301, #64 ) ;
#249 = FACE_OUTER_BOUND ( 'NONE', #84, .T. ) ;
#250 = ORIENTED_EDGE ( 'NONE', *, *, #73, .F. ) ;
#251 = ADVANCED_FACE ( 'NONE', ( #162 ), #135, .F. ) ;
#252 = PRESENTATION_STYLE_ASSIGNMENT (( #38 ) ) ;
#253 = FACE_OUTER_BOUND ( 'NONE', #213, .T. ) ;
#254 = DIRECTION ( 'NONE',  ( -1.000000000000000000, -8.673617379884036705E-17, 0.0000000000000000000 ) ) ;
#255 = EDGE_CURVE ( 'NONE', #276, #82, #101, .T. ) ;
#256 = DIRECTION ( 'NONE',  ( 0.7071067811865491270, 0.7071067811865459074, 0.0000000000000000000 ) ) ;
#257 = CARTESIAN_POINT ( 'NONE',  ( 0.0000000000000000000, 0.0000000000000000000, 9.500000000000007105 ) ) ;
#258 = VECTOR ( 'NONE', #227, 1000.000000000000000 ) ;
#259 = FACE_OUTER_BOUND ( 'NONE', #57, .T. ) ;
#260 = EDGE_CURVE ( 'NONE', #181, #59, #55, .T. ) ;
#261 = DIRECTION ( 'NONE',  ( 0.0000000000000000000, 0.0000000000000000000, -1.000000000000000000 ) ) ;
#262 = ORIENTED_EDGE ( 'NONE', *, *, #4, .F. ) ;
#263 = PLANE ( 'NONE',  #152 ) ;
#264 = ORIENTED_EDGE ( 'NONE', *, *, #192, .F. ) ;
#265 = AXIS2_PLACEMENT_3D ( 'NONE', #180, #270, #26 ) ;
#266 = ORIENTED_EDGE ( 'NONE', *, *, #260, .T. ) ;
#267 = EDGE_CURVE ( 'NONE', #336, #269, #319, .T. ) ;
#268 = DIRECTION ( 'NONE',  ( 8.673617379884037937E-17, 1.000000000000000000, -0.0000000000000000000 ) ) ;
#269 = VERTEX_POINT ( 'NONE', #182 ) ;
#270 = DIRECTION ( 'NONE',  ( 1.000000000000000000, -0.0000000000000000000, -0.0000000000000000000 ) ) ;
#271 = ORIENTED_EDGE ( 'NONE', *, *, #47, .T. ) ;
#272 = VECTOR ( 'NONE', #274, 1000.000000000000000 ) ;
#273 = SHAPE_DEFINITION_REPRESENTATION ( #199, #131 ) ;
#274 = DIRECTION ( 'NONE',  ( -0.7071067811865487940, -0.7071067811865463515, -0.0000000000000000000 ) ) ;
#275 = DIRECTION ( 'NONE',  ( 1.000000000000000000, 0.0000000000000000000, 0.0000000000000000000 ) ) ;
#276 = VERTEX_POINT ( 'NONE', #156 ) ;
#277 = SURFACE_STYLE_FILL_AREA ( #167 ) ;
#278 = CARTESIAN_POINT ( 'NONE',  ( -1.224646799147351975E-16, 0.0000000000000000000, 9.500000000000003553 ) ) ;
#279 = DIRECTION ( 'NONE',  ( 0.0000000000000000000, 0.0000000000000000000, -1.000000000000000000 ) ) ;
#280 = AXIS2_PLACEMENT_3D ( 'NONE', #95, #75, #48 ) ;
#281 = PLANE ( 'NONE',  #129 ) ;
#282 = MECHANICAL_DESIGN_GEOMETRIC_PRESENTATION_REPRESENTATION (  '', ( #17 ), #214 ) ;
#283 = CARTESIAN_POINT ( 'NONE',  ( -3.851859888774471706E-31, 31.25000000000000000, 0.0000000000000000000 ) ) ;
#284 = CYLINDRICAL_SURFACE ( 'NONE', #191, 5.499999999999992895 ) ;
#285 = DIRECTION ( 'NONE',  ( 1.000000000000000000, 8.673617379884037937E-17, 0.0000000000000000000 ) ) ;
#286 = EDGE_CURVE ( 'NONE', #136, #183, #81, .T. ) ;
#287 =( NAMED_UNIT ( * ) PLANE_ANGLE_UNIT ( ) SI_UNIT ( $, .RADIAN. ) );
#288 = CARTESIAN_POINT ( 'NONE',  ( -3.851859888774471706E-31, -31.25000000000000000, 30.00000000000000000 ) ) ;
#289 = EDGE_LOOP ( 'NONE', ( #271, #315 ) ) ;
#290 = DIRECTION ( 'NONE',  ( 0.0000000000000000000, 0.0000000000000000000, 1.000000000000000000 ) ) ;
#291 = VERTEX_POINT ( 'NONE', #29 ) ;
#292 = SURFACE_STYLE_FILL_AREA ( #185 ) ;
#293 = ORIENTED_EDGE ( 'NONE', *, *, #102, .T. ) ;
#294 = DIRECTION ( 'NONE',  ( 1.000000000000000000, -0.0000000000000000000, -0.0000000000000000000 ) ) ;
#295 = ORIENTED_EDGE ( 'NONE', *, *, #198, .F. ) ;
#296 =( LENGTH_UNIT ( ) NAMED_UNIT ( * ) SI_UNIT ( .MILLI., .METRE. ) );
#297 = VECTOR ( 'NONE', #85, 1000.000000000000000 ) ;
#298 = CARTESIAN_POINT ( 'NONE',  ( -39.99999999999999289, 31.24999999999999645, 30.00000000000000000 ) ) ;
#299 = ORIENTED_EDGE ( 'NONE', *, *, #313, .F. ) ;
#300 = CARTESIAN_POINT ( 'NONE',  ( 0.0000000000000000000, 0.0000000000000000000, 0.0000000000000000000 ) ) ;
#301 = DIRECTION ( 'NONE',  ( 1.000000000000000000, 0.0000000000000000000, -0.0000000000000000000 ) ) ;
#302 = CARTESIAN_POINT ( 'NONE',  ( -33.99999999999998579, 31.24999999999999645, 0.0000000000000000000 ) ) ;
#303 = FACE_OUTER_BOUND ( 'NONE', #245, .T. ) ;
#304 = ADVANCED_FACE ( 'NONE', ( #206 ), #263, .F. ) ;
#305 = AXIS2_PLACEMENT_3D ( 'NONE', #16, #307, #99 ) ;
#306 = CARTESIAN_POINT ( 'NONE',  ( 0.0000000000000000000, 0.0000000000000000000, 15.00000000000000000 ) ) ;
#307 = DIRECTION ( 'NONE',  ( 1.000000000000000000, -0.0000000000000000000, -0.0000000000000000000 ) ) ;
#308 = FACE_OUTER_BOUND ( 'NONE', #217, .T. ) ;
#309 = DIRECTION ( 'NONE',  ( 0.0000000000000000000, 0.0000000000000000000, -1.000000000000000000 ) ) ;
#310 = CIRCLE ( 'NONE', #265, 5.499999999999996447 ) ;
#311 = LINE ( 'NONE', #288, #9 ) ;
#312 = EDGE_LOOP ( 'NONE', ( #295, #266, #323, #155, #161, #212 ) ) ;
#313 = EDGE_CURVE ( 'NONE', #291, #276, #311, .T. ) ;
#314 = CARTESIAN_POINT ( 'NONE',  ( 0.0000000000000000000, 6.735557395310433148E-16, 20.49999999999998934 ) ) ;
#315 = ORIENTED_EDGE ( 'NONE', *, *, #79, .T. ) ;
#316 = FILL_AREA_STYLE_COLOUR ( '', #174 ) ;
#317 = ORIENTED_EDGE ( 'NONE', *, *, #126, .T. ) ;
#318 = CIRCLE ( 'NONE', #31, 5.499999999999992895 ) ;
#319 = LINE ( 'NONE', #314, #297 ) ;
#320 = ORIENTED_EDGE ( 'NONE', *, *, #126, .F. ) ;
#321 = EDGE_LOOP ( 'NONE', ( #264, #8 ) ) ;
#322 = ADVANCED_FACE ( 'NONE', ( #338 ), #52, .F. ) ;
#323 = ORIENTED_EDGE ( 'NONE', *, *, #28, .F. ) ;
#324 = PRODUCT_DEFINITION_FORMATION_WITH_SPECIFIED_SOURCE ( 'ANY', '', #49, .NOT_KNOWN. ) ;
#325 = CARTESIAN_POINT ( 'NONE',  ( -3.851859888774471706E-31, 31.25000000000000000, 0.0000000000000000000 ) ) ;
#326 = DIRECTION ( 'NONE',  ( 0.0000000000000000000, 0.0000000000000000000, 1.000000000000000000 ) ) ;
#327 = DIRECTION ( 'NONE',  ( 0.0000000000000000000, -1.000000000000000000, 0.0000000000000000000 ) ) ;
#328 = MECHANICAL_DESIGN_GEOMETRIC_PRESENTATION_REPRESENTATION (  '', ( #337 ), #44 ) ;
#329 = DIRECTION ( 'NONE',  ( 0.0000000000000000000, -1.000000000000000000, 0.0000000000000000000 ) ) ;
#330 = FACE_OUTER_BOUND ( 'NONE', #11, .T. ) ;
#331 = EDGE_CURVE ( 'NONE', #134, #86, #61, .T. ) ;
#332 = CARTESIAN_POINT ( 'NONE',  ( -39.99999999999999289, -31.24999999999999645, 30.00000000000000000 ) ) ;
#333 = LINE ( 'NONE', #151, #236 ) ;
#334 = CARTESIAN_POINT ( 'NONE',  ( -33.99999999999998579, -31.24999999999999645, 30.00000000000000000 ) ) ;
#335 = LINE ( 'NONE', #334, #68 ) ;
#336 = VERTEX_POINT ( 'NONE', #128 ) ;
#337 = STYLED_ITEM ( 'NONE', ( #66 ), #131 ) ;
#338 = FACE_OUTER_BOUND ( 'NONE', #195, .T. ) ;
#339 = ORIENTED_EDGE ( 'NONE', *, *, #286, .F. ) ;
#340 = APPLICATION_CONTEXT ( 'automotive_design' ) ;
#341 = DIRECTION ( 'NONE',  ( 0.7071067811865459074, -0.7071067811865491270, 0.0000000000000000000 ) ) ;
#342 = VERTEX_POINT ( 'NONE', #78 ) ;
ENDSEC;
END-ISO-10303-21;
