ISO-10303-21;
HEADER;
FILE_DESCRIPTION(('CATIA V5 STEP Exchange'),'2;1');

FILE_NAME('C:\\ENTREPRISE\\LOCAL\\Eoliene\\CAO\\EOLX1.1 Rotor 2 plans Engrenages & Roue libre\\EOLX1.1-D-110-001_A.stp','2020-01-30T21:54:47+00:00',('none'),('none'),'CATIA Version 5 Release 21 GA (IN-10)','CATIA V5 STEP AP203','none');

FILE_SCHEMA(('CONFIG_CONTROL_DESIGN'));

ENDSEC;
/* file written by CATIA V5R21 */
DATA;
#5=PRODUCT('EOLX1.1-D-110-001_A','','',(#2)) ;
#1=APPLICATION_CONTEXT('configuration controlled 3D design of mechanical parts and assemblies') ;
#14=PRODUCT_DEFINITION('',' ',#6,#3) ;
#16=SECURITY_CLASSIFICATION(' ',' ',#15) ;
#15=SECURITY_CLASSIFICATION_LEVEL('unclassified') ;
#47=CARTESIAN_POINT(' ',(0.,0.,0.)) ;
#52=CARTESIAN_POINT('Axis2P3D Location',(0.,110.,0.)) ;
#57=CARTESIAN_POINT('Axis2P3D Location',(0.,110.,0.)) ;
#61=CARTESIAN_POINT('Vertex',(3.35597877023,110.,6.14307793323)) ;
#63=CARTESIAN_POINT('Vertex',(-3.35597877023,110.,-6.14307793323)) ;
#66=CARTESIAN_POINT('Line Origine',(3.47583515488,109.066987298,6.36247357371)) ;
#70=CARTESIAN_POINT('Vertex',(3.59569153953,108.133974596,6.58186921418)) ;
#73=CARTESIAN_POINT('Axis2P3D Location',(0.,108.133974596,0.)) ;
#77=CARTESIAN_POINT('Vertex',(-3.59569153953,108.133974596,-6.58186921418)) ;
#80=CARTESIAN_POINT('Line Origine',(-3.47583515488,109.066987298,-6.36247357371)) ;
#92=CARTESIAN_POINT('Axis2P3D Location',(0.,110.,0.)) ;
#97=CARTESIAN_POINT('Axis2P3D Location',(0.,108.133974596,0.)) ;
#109=CARTESIAN_POINT('Axis2P3D Location',(0.,-110.,0.)) ;
#114=CARTESIAN_POINT('Axis2P3D Location',(0.,-108.133974596,0.)) ;
#118=CARTESIAN_POINT('Vertex',(3.59569153953,-108.133974596,6.58186921418)) ;
#120=CARTESIAN_POINT('Vertex',(-3.59569153953,-108.133974596,-6.58186921418)) ;
#123=CARTESIAN_POINT('Line Origine',(3.47583515488,-109.066987298,6.36247357371)) ;
#127=CARTESIAN_POINT('Vertex',(3.35597877023,-110.,6.14307793323)) ;
#130=CARTESIAN_POINT('Axis2P3D Location',(0.,-110.,0.)) ;
#134=CARTESIAN_POINT('Vertex',(-3.35597877023,-110.,-6.14307793323)) ;
#137=CARTESIAN_POINT('Line Origine',(-3.47583515488,-109.066987298,-6.36247357371)) ;
#149=CARTESIAN_POINT('Axis2P3D Location',(0.,-108.133974596,0.)) ;
#154=CARTESIAN_POINT('Axis2P3D Location',(0.,-110.,0.)) ;
#166=CARTESIAN_POINT('Axis2P3D Location',(0.,110.,7.)) ;
#176=CARTESIAN_POINT('Axis2P3D Location',(0.,-110.,-2.50161737182E-014)) ;
#186=CARTESIAN_POINT('Axis2P3D Location',(0.,-2.84217094304E-014,0.)) ;
#191=CARTESIAN_POINT('Line Origine',(-3.59569153953,0.,-6.58186921418)) ;
#196=CARTESIAN_POINT('Line Origine',(3.59569153953,0.,6.58186921418)) ;
#208=CARTESIAN_POINT('Control Point',(3.,87.,6.87386354243)) ;
#209=CARTESIAN_POINT('Control Point',(3.,87.6048757105,6.87386354243)) ;
#210=CARTESIAN_POINT('Control Point',(2.84755223956,88.2097492821,6.94039719974)) ;
#211=CARTESIAN_POINT('Control Point',(2.54606628661,88.7487211463,7.07181285553)) ;
#212=CARTESIAN_POINT('Control Point',(1.8186089144,89.5286958908,7.31232096489)) ;
#213=CARTESIAN_POINT('Control Point',(0.831877642741,89.9363150957,7.47334516141)) ;
#214=CARTESIAN_POINT('Control Point',(0.37305521427,90.0304264098,7.51281654308)) ;
#215=CARTESIAN_POINT('Control Point',(-0.436888386824,90.0348025606,7.51289125457)) ;
#216=CARTESIAN_POINT('Control Point',(-1.19289778667,89.7834222787,7.41494768264)) ;
#217=CARTESIAN_POINT('Control Point',(-1.49491543961,89.6328247638,7.35816938311)) ;
#218=CARTESIAN_POINT('Control Point',(-2.18443392387,89.161073123,7.1937492334)) ;
#219=CARTESIAN_POINT('Control Point',(-2.68037486142,88.4807662334,7.01345547241)) ;
#220=CARTESIAN_POINT('Control Point',(-2.89314574548,88.0128167686,6.9204985624)) ;
#221=CARTESIAN_POINT('Control Point',(-3.,87.5064091339,6.87386354243)) ;
#222=CARTESIAN_POINT('Control Point',(-3.,87.,6.87386354243)) ;
#223=CARTESIAN_POINT('Vertex',(3.,87.,6.87386354243)) ;
#225=CARTESIAN_POINT('Vertex',(-3.,87.,6.87386354243)) ;
#229=CARTESIAN_POINT('Control Point',(-3.,87.,6.87386354243)) ;
#230=CARTESIAN_POINT('Control Point',(-3.,86.3951242896,6.87386354243)) ;
#231=CARTESIAN_POINT('Control Point',(-2.84755223958,85.790250718,6.94039719973)) ;
#232=CARTESIAN_POINT('Control Point',(-2.54606628655,85.2512788536,7.07181285555)) ;
#233=CARTESIAN_POINT('Control Point',(-1.81860891433,84.4713041092,7.31232096491)) ;
#234=CARTESIAN_POINT('Control Point',(-0.831877642661,84.0636849043,7.47334516143)) ;
#235=CARTESIAN_POINT('Control Point',(-0.373055214304,83.9695735902,7.51281654308)) ;
#236=CARTESIAN_POINT('Control Point',(0.436888386799,83.9651974394,7.51289125457)) ;
#237=CARTESIAN_POINT('Control Point',(1.19289778664,84.2165777213,7.41494768264)) ;
#238=CARTESIAN_POINT('Control Point',(1.49491543967,84.3671752362,7.3581693831)) ;
#239=CARTESIAN_POINT('Control Point',(2.18443392389,84.838926877,7.19374923339)) ;
#240=CARTESIAN_POINT('Control Point',(2.68037486143,85.5192337666,7.01345547241)) ;
#241=CARTESIAN_POINT('Control Point',(2.89314574548,85.9871832314,6.9204985624)) ;
#242=CARTESIAN_POINT('Control Point',(3.,86.4935908661,6.87386354243)) ;
#243=CARTESIAN_POINT('Control Point',(3.,87.,6.87386354243)) ;
#250=CARTESIAN_POINT('Control Point',(3.,-87.,6.87386354243)) ;
#251=CARTESIAN_POINT('Control Point',(3.,-86.3951242896,6.87386354243)) ;
#252=CARTESIAN_POINT('Control Point',(2.84755223958,-85.790250718,6.94039719973)) ;
#253=CARTESIAN_POINT('Control Point',(2.54606628655,-85.2512788536,7.07181285555)) ;
#254=CARTESIAN_POINT('Control Point',(1.81860891436,-84.4713041092,7.3123209649)) ;
#255=CARTESIAN_POINT('Control Point',(0.831877642717,-84.0636849043,7.47334516142)) ;
#256=CARTESIAN_POINT('Control Point',(0.373055214297,-83.9695735902,7.51281654308)) ;
#257=CARTESIAN_POINT('Control Point',(-0.436888386757,-83.9651974394,7.51289125457)) ;
#258=CARTESIAN_POINT('Control Point',(-1.19289778656,-84.2165777213,7.41494768265)) ;
#259=CARTESIAN_POINT('Control Point',(-1.4949154397,-84.3671752362,7.35816938309)) ;
#260=CARTESIAN_POINT('Control Point',(-2.1844339239,-84.838926877,7.19374923339)) ;
#261=CARTESIAN_POINT('Control Point',(-2.68037486142,-85.5192337666,7.01345547241)) ;
#262=CARTESIAN_POINT('Control Point',(-2.89314574548,-85.9871832314,6.9204985624)) ;
#263=CARTESIAN_POINT('Control Point',(-3.,-86.4935908661,6.87386354243)) ;
#264=CARTESIAN_POINT('Control Point',(-3.,-87.,6.87386354243)) ;
#265=CARTESIAN_POINT('Vertex',(3.,-87.,6.87386354243)) ;
#267=CARTESIAN_POINT('Vertex',(-3.,-87.,6.87386354243)) ;
#271=CARTESIAN_POINT('Control Point',(-3.,-87.,6.87386354243)) ;
#272=CARTESIAN_POINT('Control Point',(-3.,-87.6048757105,6.87386354243)) ;
#273=CARTESIAN_POINT('Control Point',(-2.84755223956,-88.2097492821,6.94039719974)) ;
#274=CARTESIAN_POINT('Control Point',(-2.54606628658,-88.7487211464,7.07181285554)) ;
#275=CARTESIAN_POINT('Control Point',(-1.81860891438,-89.5286958908,7.3123209649)) ;
#276=CARTESIAN_POINT('Control Point',(-0.831877642716,-89.9363150957,7.47334516142)) ;
#277=CARTESIAN_POINT('Control Point',(-0.373055214243,-90.0304264098,7.51281654308)) ;
#278=CARTESIAN_POINT('Control Point',(0.436888386786,-90.0348025606,7.51289125457)) ;
#279=CARTESIAN_POINT('Control Point',(1.19289778657,-89.7834222787,7.41494768265)) ;
#280=CARTESIAN_POINT('Control Point',(1.49491543974,-89.6328247638,7.35816938308)) ;
#281=CARTESIAN_POINT('Control Point',(2.18443392392,-89.161073123,7.19374923338)) ;
#282=CARTESIAN_POINT('Control Point',(2.68037486143,-88.4807662334,7.01345547241)) ;
#283=CARTESIAN_POINT('Control Point',(2.89314574548,-88.0128167686,6.9204985624)) ;
#284=CARTESIAN_POINT('Control Point',(3.,-87.5064091339,6.87386354243)) ;
#285=CARTESIAN_POINT('Control Point',(3.,-87.,6.87386354243)) ;
#299=CARTESIAN_POINT('Control Point',(-3.,87.,-6.87386354243)) ;
#300=CARTESIAN_POINT('Control Point',(-3.,86.3951242896,-6.87386354243)) ;
#301=CARTESIAN_POINT('Control Point',(-2.84755223959,85.790250718,-6.94039719973)) ;
#302=CARTESIAN_POINT('Control Point',(-2.5460662865,85.2512788536,-7.07181285556)) ;
#303=CARTESIAN_POINT('Control Point',(-1.81860891432,84.4713041092,-7.31232096491)) ;
#304=CARTESIAN_POINT('Control Point',(-0.83187764269,84.0636849043,-7.47334516142)) ;
#305=CARTESIAN_POINT('Control Point',(-0.373055214269,83.9695735902,-7.51281654308)) ;
#306=CARTESIAN_POINT('Control Point',(0.436888386759,83.9651974394,-7.51289125457)) ;
#307=CARTESIAN_POINT('Control Point',(1.19289778654,84.2165777213,-7.41494768266)) ;
#308=CARTESIAN_POINT('Control Point',(1.49491543976,84.3671752363,-7.35816938308)) ;
#309=CARTESIAN_POINT('Control Point',(2.18443392393,84.8389268771,-7.19374923338)) ;
#310=CARTESIAN_POINT('Control Point',(2.68037486143,85.5192337666,-7.01345547241)) ;
#311=CARTESIAN_POINT('Control Point',(2.89314574548,85.9871832314,-6.9204985624)) ;
#312=CARTESIAN_POINT('Control Point',(3.,86.4935908661,-6.87386354243)) ;
#313=CARTESIAN_POINT('Control Point',(3.,87.,-6.87386354243)) ;
#314=CARTESIAN_POINT('Vertex',(-3.,87.,-6.87386354243)) ;
#316=CARTESIAN_POINT('Vertex',(3.,87.,-6.87386354243)) ;
#320=CARTESIAN_POINT('Control Point',(3.,87.,-6.87386354243)) ;
#321=CARTESIAN_POINT('Control Point',(3.,87.6048757104,-6.87386354243)) ;
#322=CARTESIAN_POINT('Control Point',(2.84755223958,88.209749282,-6.94039719974)) ;
#323=CARTESIAN_POINT('Control Point',(2.54606628656,88.7487211464,-7.07181285554)) ;
#324=CARTESIAN_POINT('Control Point',(1.81860891437,89.5286958908,-7.3123209649)) ;
#325=CARTESIAN_POINT('Control Point',(0.831877642732,89.9363150957,-7.47334516142)) ;
#326=CARTESIAN_POINT('Control Point',(0.37305521428,90.0304264098,-7.51281654308)) ;
#327=CARTESIAN_POINT('Control Point',(-0.436888386798,90.0348025606,-7.51289125457)) ;
#328=CARTESIAN_POINT('Control Point',(-1.19289778662,89.7834222787,-7.41494768265)) ;
#329=CARTESIAN_POINT('Control Point',(-1.49491543965,89.6328247638,-7.3581693831)) ;
#330=CARTESIAN_POINT('Control Point',(-2.18443392386,89.161073123,-7.1937492334)) ;
#331=CARTESIAN_POINT('Control Point',(-2.6803748614,88.4807662334,-7.01345547242)) ;
#332=CARTESIAN_POINT('Control Point',(-2.89314574549,88.0128167686,-6.9204985624)) ;
#333=CARTESIAN_POINT('Control Point',(-3.,87.5064091339,-6.87386354243)) ;
#334=CARTESIAN_POINT('Control Point',(-3.,87.,-6.87386354243)) ;
#341=CARTESIAN_POINT('Control Point',(-3.,-87.,-6.87386354243)) ;
#342=CARTESIAN_POINT('Control Point',(-3.,-87.6048757104,-6.87386354243)) ;
#343=CARTESIAN_POINT('Control Point',(-2.8475522396,-88.2097492819,-6.94039719972)) ;
#344=CARTESIAN_POINT('Control Point',(-2.54606628648,-88.7487211465,-7.07181285557)) ;
#345=CARTESIAN_POINT('Control Point',(-1.81860891429,-89.5286958909,-7.31232096491)) ;
#346=CARTESIAN_POINT('Control Point',(-0.831877642666,-89.9363150957,-7.47334516143)) ;
#347=CARTESIAN_POINT('Control Point',(-0.373055214297,-90.0304264098,-7.51281654308)) ;
#348=CARTESIAN_POINT('Control Point',(0.43688838681,-90.0348025606,-7.51289125457)) ;
#349=CARTESIAN_POINT('Control Point',(1.19289778666,-89.7834222787,-7.41494768264)) ;
#350=CARTESIAN_POINT('Control Point',(1.49491543966,-89.6328247638,-7.3581693831)) ;
#351=CARTESIAN_POINT('Control Point',(2.18443392388,-89.161073123,-7.1937492334)) ;
#352=CARTESIAN_POINT('Control Point',(2.68037486142,-88.4807662334,-7.01345547241)) ;
#353=CARTESIAN_POINT('Control Point',(2.89314574548,-88.0128167686,-6.9204985624)) ;
#354=CARTESIAN_POINT('Control Point',(3.,-87.5064091339,-6.87386354243)) ;
#355=CARTESIAN_POINT('Control Point',(3.,-87.,-6.87386354243)) ;
#356=CARTESIAN_POINT('Vertex',(-3.,-87.,-6.87386354243)) ;
#358=CARTESIAN_POINT('Vertex',(3.,-87.,-6.87386354243)) ;
#362=CARTESIAN_POINT('Control Point',(3.,-87.,-6.87386354243)) ;
#363=CARTESIAN_POINT('Control Point',(3.,-86.3951242896,-6.87386354243)) ;
#364=CARTESIAN_POINT('Control Point',(2.84755223958,-85.790250718,-6.94039719973)) ;
#365=CARTESIAN_POINT('Control Point',(2.54606628655,-85.2512788536,-7.07181285555)) ;
#366=CARTESIAN_POINT('Control Point',(1.81860891436,-84.4713041092,-7.3123209649)) ;
#367=CARTESIAN_POINT('Control Point',(0.831877642738,-84.0636849043,-7.47334516141)) ;
#368=CARTESIAN_POINT('Control Point',(0.373055214275,-83.9695735902,-7.51281654308)) ;
#369=CARTESIAN_POINT('Control Point',(-0.436888386769,-83.9651974394,-7.51289125457)) ;
#370=CARTESIAN_POINT('Control Point',(-1.19289778657,-84.2165777213,-7.41494768265)) ;
#371=CARTESIAN_POINT('Control Point',(-1.4949154397,-84.3671752362,-7.35816938309)) ;
#372=CARTESIAN_POINT('Control Point',(-2.18443392391,-84.838926877,-7.19374923339)) ;
#373=CARTESIAN_POINT('Control Point',(-2.68037486144,-85.5192337666,-7.01345547241)) ;
#374=CARTESIAN_POINT('Control Point',(-2.89314574548,-85.9871832314,-6.9204985624)) ;
#375=CARTESIAN_POINT('Control Point',(-3.,-86.4935908661,-6.87386354243)) ;
#376=CARTESIAN_POINT('Control Point',(-3.,-87.,-6.87386354243)) ;
#383=CARTESIAN_POINT('Axis2P3D Location',(0.,-87.,0.)) ;
#388=CARTESIAN_POINT('Line Origine',(3.,-87.,0.)) ;
#393=CARTESIAN_POINT('Line Origine',(-3.,-87.,0.)) ;
#412=CARTESIAN_POINT('Axis2P3D Location',(0.,87.,0.)) ;
#417=CARTESIAN_POINT('Line Origine',(3.,87.,0.)) ;
#422=CARTESIAN_POINT('Line Origine',(-3.,87.,0.)) ;
#53=DIRECTION('Axis2P3D Direction',(-0.,-1.,-0.)) ;
#54=DIRECTION('Axis2P3D XDirection',(0.479425538604,0.,0.87758256189)) ;
#58=DIRECTION('Axis2P3D Direction',(0.,-1.,-0.)) ;
#67=DIRECTION('Vector Direction',(0.124084460099,-0.965925826289,0.227135080667)) ;
#74=DIRECTION('Axis2P3D Direction',(0.,-1.,-0.)) ;
#81=DIRECTION('Vector Direction',(-0.124084460099,-0.965925826289,-0.227135080667)) ;
#93=DIRECTION('Axis2P3D Direction',(0.,-1.,-0.)) ;
#98=DIRECTION('Axis2P3D Direction',(0.,-1.,-0.)) ;
#110=DIRECTION('Axis2P3D Direction',(0.,1.,0.)) ;
#111=DIRECTION('Axis2P3D XDirection',(0.479425538604,0.,0.87758256189)) ;
#115=DIRECTION('Axis2P3D Direction',(0.,1.,0.)) ;
#124=DIRECTION('Vector Direction',(0.124084460099,0.965925826289,0.227135080667)) ;
#131=DIRECTION('Axis2P3D Direction',(0.,1.,0.)) ;
#138=DIRECTION('Vector Direction',(-0.124084460099,0.965925826289,-0.227135080667)) ;
#150=DIRECTION('Axis2P3D Direction',(0.,1.,0.)) ;
#155=DIRECTION('Axis2P3D Direction',(0.,1.,0.)) ;
#167=DIRECTION('Axis2P3D Direction',(0.,1.,0.)) ;
#168=DIRECTION('Axis2P3D XDirection',(1.,-0.,0.)) ;
#177=DIRECTION('Axis2P3D Direction',(0.,1.,0.)) ;
#178=DIRECTION('Axis2P3D XDirection',(1.,-0.,0.)) ;
#187=DIRECTION('Axis2P3D Direction',(0.,1.,0.)) ;
#188=DIRECTION('Axis2P3D XDirection',(0.479425538604,-0.,0.87758256189)) ;
#192=DIRECTION('Vector Direction',(0.,1.,0.)) ;
#197=DIRECTION('Vector Direction',(0.,1.,0.)) ;
#384=DIRECTION('Axis2P3D Direction',(0.,0.,1.)) ;
#385=DIRECTION('Axis2P3D XDirection',(1.,0.,0.)) ;
#389=DIRECTION('Vector Direction',(0.,0.,1.)) ;
#394=DIRECTION('Vector Direction',(0.,0.,1.)) ;
#413=DIRECTION('Axis2P3D Direction',(0.,0.,1.)) ;
#414=DIRECTION('Axis2P3D XDirection',(1.,0.,0.)) ;
#418=DIRECTION('Vector Direction',(0.,0.,1.)) ;
#423=DIRECTION('Vector Direction',(0.,0.,1.)) ;
#48=AXIS2_PLACEMENT_3D(' ',#47,$,$) ;
#55=AXIS2_PLACEMENT_3D('Cone Axis2P3D',#52,#53,#54) ;
#59=AXIS2_PLACEMENT_3D('Circle Axis2P3D',#57,#58,$) ;
#75=AXIS2_PLACEMENT_3D('Circle Axis2P3D',#73,#74,$) ;
#94=AXIS2_PLACEMENT_3D('Circle Axis2P3D',#92,#93,$) ;
#99=AXIS2_PLACEMENT_3D('Circle Axis2P3D',#97,#98,$) ;
#112=AXIS2_PLACEMENT_3D('Cone Axis2P3D',#109,#110,#111) ;
#116=AXIS2_PLACEMENT_3D('Circle Axis2P3D',#114,#115,$) ;
#132=AXIS2_PLACEMENT_3D('Circle Axis2P3D',#130,#131,$) ;
#151=AXIS2_PLACEMENT_3D('Circle Axis2P3D',#149,#150,$) ;
#156=AXIS2_PLACEMENT_3D('Circle Axis2P3D',#154,#155,$) ;
#169=AXIS2_PLACEMENT_3D('Plane Axis2P3D',#166,#167,#168) ;
#179=AXIS2_PLACEMENT_3D('Plane Axis2P3D',#176,#177,#178) ;
#189=AXIS2_PLACEMENT_3D('Cylinder Axis2P3D',#186,#187,#188) ;
#386=AXIS2_PLACEMENT_3D('Cylinder Axis2P3D',#383,#384,#385) ;
#415=AXIS2_PLACEMENT_3D('Cylinder Axis2P3D',#412,#413,#414) ;
#40=PRODUCT_DEFINITION_SHAPE(' ',' ',#14) ;
#31=APPROVAL_PERSON_ORGANIZATION(#25,#21,#19) ;
#25=PERSON_AND_ORGANIZATION(#22,#23) ;
#22=PERSON(' ',' ',' ',$,$,$) ;
#23=ORGANIZATION(' ',' ',' ') ;
#21=APPROVAL(#20,' ') ;
#20=APPROVAL_STATUS('not_yet_approved') ;
#19=APPROVAL_ROLE('APPROVER') ;
#13=DATE_AND_TIME(#11,#12) ;
#12=LOCAL_TIME(22,54,47.,#10) ;
#10=COORDINATED_UNIVERSAL_TIME_OFFSET(0,0,.AHEAD.) ;
#86=ORIENTED_EDGE('',*,*,#65,.F.) ;
#87=ORIENTED_EDGE('',*,*,#72,.T.) ;
#88=ORIENTED_EDGE('',*,*,#79,.T.) ;
#89=ORIENTED_EDGE('',*,*,#84,.F.) ;
#103=ORIENTED_EDGE('',*,*,#96,.F.) ;
#104=ORIENTED_EDGE('',*,*,#84,.T.) ;
#105=ORIENTED_EDGE('',*,*,#101,.T.) ;
#106=ORIENTED_EDGE('',*,*,#72,.F.) ;
#143=ORIENTED_EDGE('',*,*,#122,.F.) ;
#144=ORIENTED_EDGE('',*,*,#129,.T.) ;
#145=ORIENTED_EDGE('',*,*,#136,.T.) ;
#146=ORIENTED_EDGE('',*,*,#141,.F.) ;
#160=ORIENTED_EDGE('',*,*,#153,.F.) ;
#161=ORIENTED_EDGE('',*,*,#141,.T.) ;
#162=ORIENTED_EDGE('',*,*,#158,.T.) ;
#163=ORIENTED_EDGE('',*,*,#129,.F.) ;
#172=ORIENTED_EDGE('',*,*,#65,.T.) ;
#173=ORIENTED_EDGE('',*,*,#96,.T.) ;
#182=ORIENTED_EDGE('',*,*,#136,.F.) ;
#183=ORIENTED_EDGE('',*,*,#158,.F.) ;
#202=ORIENTED_EDGE('',*,*,#101,.F.) ;
#203=ORIENTED_EDGE('',*,*,#195,.T.) ;
#204=ORIENTED_EDGE('',*,*,#153,.T.) ;
#205=ORIENTED_EDGE('',*,*,#200,.F.) ;
#246=ORIENTED_EDGE('',*,*,#227,.F.) ;
#247=ORIENTED_EDGE('',*,*,#244,.F.) ;
#288=ORIENTED_EDGE('',*,*,#269,.F.) ;
#289=ORIENTED_EDGE('',*,*,#286,.F.) ;
#293=ORIENTED_EDGE('',*,*,#79,.F.) ;
#294=ORIENTED_EDGE('',*,*,#200,.T.) ;
#295=ORIENTED_EDGE('',*,*,#122,.T.) ;
#296=ORIENTED_EDGE('',*,*,#195,.F.) ;
#337=ORIENTED_EDGE('',*,*,#318,.T.) ;
#338=ORIENTED_EDGE('',*,*,#335,.T.) ;
#379=ORIENTED_EDGE('',*,*,#360,.T.) ;
#380=ORIENTED_EDGE('',*,*,#377,.T.) ;
#399=ORIENTED_EDGE('',*,*,#392,.T.) ;
#400=ORIENTED_EDGE('',*,*,#360,.F.) ;
#401=ORIENTED_EDGE('',*,*,#397,.F.) ;
#402=ORIENTED_EDGE('',*,*,#286,.T.) ;
#406=ORIENTED_EDGE('',*,*,#397,.T.) ;
#407=ORIENTED_EDGE('',*,*,#377,.F.) ;
#408=ORIENTED_EDGE('',*,*,#392,.F.) ;
#409=ORIENTED_EDGE('',*,*,#269,.T.) ;
#428=ORIENTED_EDGE('',*,*,#421,.T.) ;
#429=ORIENTED_EDGE('',*,*,#318,.F.) ;
#430=ORIENTED_EDGE('',*,*,#426,.F.) ;
#431=ORIENTED_EDGE('',*,*,#244,.T.) ;
#435=ORIENTED_EDGE('',*,*,#426,.T.) ;
#436=ORIENTED_EDGE('',*,*,#335,.F.) ;
#437=ORIENTED_EDGE('',*,*,#421,.F.) ;
#438=ORIENTED_EDGE('',*,*,#227,.T.) ;
#248=FACE_BOUND('',#245,.T.) ;
#290=FACE_BOUND('',#287,.T.) ;
#339=FACE_BOUND('',#336,.T.) ;
#381=FACE_BOUND('',#378,.T.) ;
#51=CLOSED_SHELL('Closed Shell',(#91,#108,#148,#165,#175,#185,#291,#382,#404,#411,#433,#440)) ;
#68=VECTOR('Line Direction',#67,1.) ;
#82=VECTOR('Line Direction',#81,1.) ;
#125=VECTOR('Line Direction',#124,1.) ;
#139=VECTOR('Line Direction',#138,1.) ;
#193=VECTOR('Line Direction',#192,1.) ;
#198=VECTOR('Line Direction',#197,1.) ;
#390=VECTOR('Line Direction',#389,1.) ;
#395=VECTOR('Line Direction',#394,1.) ;
#419=VECTOR('Line Direction',#418,1.) ;
#424=VECTOR('Line Direction',#423,1.) ;
#442=ADVANCED_BREP_SHAPE_REPRESENTATION('NONE',(#441),#46) ;
#49=SHAPE_REPRESENTATION(' ',(#48),#46) ;
#91=ADVANCED_FACE('PartBody',(#90),#56,.T.) ;
#108=ADVANCED_FACE('PartBody',(#107),#56,.T.) ;
#148=ADVANCED_FACE('PartBody',(#147),#113,.T.) ;
#165=ADVANCED_FACE('PartBody',(#164),#113,.T.) ;
#175=ADVANCED_FACE('PartBody',(#174),#170,.T.) ;
#185=ADVANCED_FACE('PartBody',(#184),#180,.F.) ;
#291=ADVANCED_FACE('PartBody',(#206,#248,#290),#190,.T.) ;
#382=ADVANCED_FACE('PartBody',(#297,#339,#381),#190,.T.) ;
#404=ADVANCED_FACE('PartBody',(#403),#387,.F.) ;
#411=ADVANCED_FACE('PartBody',(#410),#387,.F.) ;
#433=ADVANCED_FACE('PartBody',(#432),#416,.F.) ;
#440=ADVANCED_FACE('PartBody',(#439),#416,.F.) ;
#4=APPLICATION_PROTOCOL_DEFINITION('international standard','config_control_design',1994,#1) ;
#32=APPROVAL_DATE_TIME(#13,#21) ;
#207=B_SPLINE_CURVE_WITH_KNOTS('',5,(#208,#209,#210,#211,#212,#213,#214,#215,#216,#217,#218,#219,#220,#221,#222),.UNSPECIFIED.,.F.,.U.,(6,3,3,3,6),(0.,4.27711716646,7.5049144791,9.89076543971,13.4716187659),.UNSPECIFIED.) ;
#228=B_SPLINE_CURVE_WITH_KNOTS('',5,(#229,#230,#231,#232,#233,#234,#235,#236,#237,#238,#239,#240,#241,#242,#243),.UNSPECIFIED.,.F.,.U.,(6,3,3,3,6),(0.,4.27711716621,7.50491447906,9.89076543949,13.4716187657),.UNSPECIFIED.) ;
#249=B_SPLINE_CURVE_WITH_KNOTS('',5,(#250,#251,#252,#253,#254,#255,#256,#257,#258,#259,#260,#261,#262,#263,#264),.UNSPECIFIED.,.F.,.U.,(6,3,3,3,6),(0.,4.27711716616,7.5049144789,9.89076543912,13.4716187653),.UNSPECIFIED.) ;
#270=B_SPLINE_CURVE_WITH_KNOTS('',5,(#271,#272,#273,#274,#275,#276,#277,#278,#279,#280,#281,#282,#283,#284,#285),.UNSPECIFIED.,.F.,.U.,(6,3,3,3,6),(0.,4.27711716642,7.50491447906,9.8907654392,13.4716187654),.UNSPECIFIED.) ;
#298=B_SPLINE_CURVE_WITH_KNOTS('',5,(#299,#300,#301,#302,#303,#304,#305,#306,#307,#308,#309,#310,#311,#312,#313),.UNSPECIFIED.,.F.,.U.,(6,3,3,3,6),(0.,4.27711716602,7.50491447875,9.8907654388,13.471618765),.UNSPECIFIED.) ;
#319=B_SPLINE_CURVE_WITH_KNOTS('',5,(#320,#321,#322,#323,#324,#325,#326,#327,#328,#329,#330,#331,#332,#333,#334),.UNSPECIFIED.,.F.,.U.,(6,3,3,3,6),(0.,4.2771171662,7.50491447887,9.89076543932,13.4716187654),.UNSPECIFIED.) ;
#340=B_SPLINE_CURVE_WITH_KNOTS('',5,(#341,#342,#343,#344,#345,#346,#347,#348,#349,#350,#351,#352,#353,#354,#355),.UNSPECIFIED.,.F.,.U.,(6,3,3,3,6),(0.,4.27711716588,7.5049144787,9.8907654392,13.4716187653),.UNSPECIFIED.) ;
#361=B_SPLINE_CURVE_WITH_KNOTS('',5,(#362,#363,#364,#365,#366,#367,#368,#369,#370,#371,#372,#373,#374,#375,#376),.UNSPECIFIED.,.F.,.U.,(6,3,3,3,6),(0.,4.27711716617,7.50491447883,9.89076543906,13.4716187654),.UNSPECIFIED.) ;
#441=MANIFOLD_SOLID_BREP('PartBody',#51) ;
#11=CALENDAR_DATE(2020,30,1) ;
#30=CC_DESIGN_APPROVAL(#21,(#16,#6,#14)) ;
#18=CC_DESIGN_DATE_AND_TIME_ASSIGNMENT(#13,#17,(#16)) ;
#29=CC_DESIGN_DATE_AND_TIME_ASSIGNMENT(#13,#28,(#14)) ;
#17=DATE_TIME_ROLE('classification_date') ;
#28=DATE_TIME_ROLE('creation_date') ;
#27=CC_DESIGN_PERSON_AND_ORGANIZATION_ASSIGNMENT(#25,#26,(#16)) ;
#33=CC_DESIGN_PERSON_AND_ORGANIZATION_ASSIGNMENT(#25,#34,(#6)) ;
#35=CC_DESIGN_PERSON_AND_ORGANIZATION_ASSIGNMENT(#25,#36,(#6,#14)) ;
#37=CC_DESIGN_PERSON_AND_ORGANIZATION_ASSIGNMENT(#25,#38,(#5)) ;
#26=PERSON_AND_ORGANIZATION_ROLE('classification_officer') ;
#34=PERSON_AND_ORGANIZATION_ROLE('design_supplier') ;
#36=PERSON_AND_ORGANIZATION_ROLE('creator') ;
#38=PERSON_AND_ORGANIZATION_ROLE('design_owner') ;
#39=CC_DESIGN_SECURITY_CLASSIFICATION(#16,(#6)) ;
#60=CIRCLE('generated circle',#59,7.) ;
#76=CIRCLE('generated circle',#75,7.5) ;
#95=CIRCLE('generated circle',#94,7.) ;
#100=CIRCLE('generated circle',#99,7.5) ;
#117=CIRCLE('generated circle',#116,7.5) ;
#133=CIRCLE('generated circle',#132,7.) ;
#152=CIRCLE('generated circle',#151,7.5) ;
#157=CIRCLE('generated circle',#156,7.) ;
#56=CONICAL_SURFACE('Cone',#55,7.,0.261799387799) ;
#113=CONICAL_SURFACE('Cone',#112,7.,0.261799387799) ;
#443=SHAPE_REPRESENTATION_RELATIONSHIP(' ',' ',#49,#442) ;
#190=CYLINDRICAL_SURFACE('generated cylinder',#189,7.5) ;
#387=CYLINDRICAL_SURFACE('generated cylinder',#386,3.) ;
#416=CYLINDRICAL_SURFACE('generated cylinder',#415,3.) ;
#3=DESIGN_CONTEXT(' ',#1,'design') ;
#65=EDGE_CURVE('',#62,#64,#60,.F.) ;
#72=EDGE_CURVE('',#62,#71,#69,.T.) ;
#79=EDGE_CURVE('',#71,#78,#76,.F.) ;
#84=EDGE_CURVE('',#64,#78,#83,.T.) ;
#96=EDGE_CURVE('',#64,#62,#95,.F.) ;
#101=EDGE_CURVE('',#78,#71,#100,.F.) ;
#122=EDGE_CURVE('',#119,#121,#117,.T.) ;
#129=EDGE_CURVE('',#119,#128,#126,.F.) ;
#136=EDGE_CURVE('',#128,#135,#133,.T.) ;
#141=EDGE_CURVE('',#121,#135,#140,.F.) ;
#153=EDGE_CURVE('',#121,#119,#152,.T.) ;
#158=EDGE_CURVE('',#135,#128,#157,.T.) ;
#195=EDGE_CURVE('',#78,#121,#194,.F.) ;
#200=EDGE_CURVE('',#71,#119,#199,.F.) ;
#227=EDGE_CURVE('',#224,#226,#207,.T.) ;
#244=EDGE_CURVE('',#226,#224,#228,.T.) ;
#269=EDGE_CURVE('',#266,#268,#249,.T.) ;
#286=EDGE_CURVE('',#268,#266,#270,.T.) ;
#318=EDGE_CURVE('',#315,#317,#298,.T.) ;
#335=EDGE_CURVE('',#317,#315,#319,.T.) ;
#360=EDGE_CURVE('',#357,#359,#340,.T.) ;
#377=EDGE_CURVE('',#359,#357,#361,.T.) ;
#392=EDGE_CURVE('',#266,#359,#391,.F.) ;
#397=EDGE_CURVE('',#268,#357,#396,.F.) ;
#421=EDGE_CURVE('',#224,#317,#420,.F.) ;
#426=EDGE_CURVE('',#226,#315,#425,.F.) ;
#85=EDGE_LOOP('',(#86,#87,#88,#89)) ;
#102=EDGE_LOOP('',(#103,#104,#105,#106)) ;
#142=EDGE_LOOP('',(#143,#144,#145,#146)) ;
#159=EDGE_LOOP('',(#160,#161,#162,#163)) ;
#171=EDGE_LOOP('',(#172,#173)) ;
#181=EDGE_LOOP('',(#182,#183)) ;
#201=EDGE_LOOP('',(#202,#203,#204,#205)) ;
#245=EDGE_LOOP('',(#246,#247)) ;
#287=EDGE_LOOP('',(#288,#289)) ;
#292=EDGE_LOOP('',(#293,#294,#295,#296)) ;
#336=EDGE_LOOP('',(#337,#338)) ;
#378=EDGE_LOOP('',(#379,#380)) ;
#398=EDGE_LOOP('',(#399,#400,#401,#402)) ;
#405=EDGE_LOOP('',(#406,#407,#408,#409)) ;
#427=EDGE_LOOP('',(#428,#429,#430,#431)) ;
#434=EDGE_LOOP('',(#435,#436,#437,#438)) ;
#90=FACE_OUTER_BOUND('',#85,.T.) ;
#107=FACE_OUTER_BOUND('',#102,.T.) ;
#147=FACE_OUTER_BOUND('',#142,.T.) ;
#164=FACE_OUTER_BOUND('',#159,.T.) ;
#174=FACE_OUTER_BOUND('',#171,.T.) ;
#184=FACE_OUTER_BOUND('',#181,.T.) ;
#206=FACE_OUTER_BOUND('',#201,.T.) ;
#297=FACE_OUTER_BOUND('',#292,.T.) ;
#403=FACE_OUTER_BOUND('',#398,.T.) ;
#410=FACE_OUTER_BOUND('',#405,.T.) ;
#432=FACE_OUTER_BOUND('',#427,.T.) ;
#439=FACE_OUTER_BOUND('',#434,.T.) ;
#45=UNCERTAINTY_MEASURE_WITH_UNIT(LENGTH_MEASURE(0.005),#41,'distance_accuracy_value','CONFUSED CURVE UNCERTAINTY') ;
#69=LINE('Line',#66,#68) ;
#83=LINE('Line',#80,#82) ;
#126=LINE('Line',#123,#125) ;
#140=LINE('Line',#137,#139) ;
#194=LINE('Line',#191,#193) ;
#199=LINE('Line',#196,#198) ;
#391=LINE('Line',#388,#390) ;
#396=LINE('Line',#393,#395) ;
#420=LINE('Line',#417,#419) ;
#425=LINE('Line',#422,#424) ;
#2=MECHANICAL_CONTEXT(' ',#1,'mechanical') ;
#24=PERSONAL_ADDRESS(' ',' ',' ',' ',' ',' ',' ',' ',' ',' ',' ',' ',(#22),' ') ;
#170=PLANE('',#169) ;
#180=PLANE('',#179) ;
#43=PLANE_ANGLE_MEASURE_WITH_UNIT(PLANE_ANGLE_MEASURE(0.0174532925199),#42) ;
#7=PRODUCT_CATEGORY('part',$) ;
#9=PRODUCT_CATEGORY_RELATIONSHIP(' ',' ',#7,#8) ;
#6=PRODUCT_DEFINITION_FORMATION_WITH_SPECIFIED_SOURCE('',' ',#5,.NOT_KNOWN.) ;
#8=PRODUCT_RELATED_PRODUCT_CATEGORY('detail',$,(#5)) ;
#50=SHAPE_DEFINITION_REPRESENTATION(#40,#49) ;
#62=VERTEX_POINT('',#61) ;
#64=VERTEX_POINT('',#63) ;
#71=VERTEX_POINT('',#70) ;
#78=VERTEX_POINT('',#77) ;
#119=VERTEX_POINT('',#118) ;
#121=VERTEX_POINT('',#120) ;
#128=VERTEX_POINT('',#127) ;
#135=VERTEX_POINT('',#134) ;
#224=VERTEX_POINT('',#223) ;
#226=VERTEX_POINT('',#225) ;
#266=VERTEX_POINT('',#265) ;
#268=VERTEX_POINT('',#267) ;
#315=VERTEX_POINT('',#314) ;
#317=VERTEX_POINT('',#316) ;
#357=VERTEX_POINT('',#356) ;
#359=VERTEX_POINT('',#358) ;
#41=(LENGTH_UNIT()NAMED_UNIT(*)SI_UNIT(.MILLI.,.METRE.)) ;
#42=(NAMED_UNIT(*)PLANE_ANGLE_UNIT()SI_UNIT($,.RADIAN.)) ;
#44=(NAMED_UNIT(*)SI_UNIT($,.STERADIAN.)SOLID_ANGLE_UNIT()) ;
#46=(GEOMETRIC_REPRESENTATION_CONTEXT(3)GLOBAL_UNCERTAINTY_ASSIGNED_CONTEXT((#45))GLOBAL_UNIT_ASSIGNED_CONTEXT((#41,#42,#44))REPRESENTATION_CONTEXT(' ',' ')) ;
ENDSEC;
END-ISO-10303-21;
