ISO-10303-21;
HEADER;
FILE_DESCRIPTION(('CATIA V5 STEP Exchange'),'2;1');

FILE_NAME('C:\\ENTREPRISE\\LOCAL\\Eoliene\\CAO\\EOLX1.2 Rotor 4 pales Vilebrequin\\EOLX1.2-D-130-006_A.stp','2020-01-30T22:15:48+00:00',('none'),('none'),'CATIA Version 5 Release 21 GA (IN-10)','CATIA V5 STEP AP203','none');

FILE_SCHEMA(('CONFIG_CONTROL_DESIGN'));

ENDSEC;
/* file written by CATIA V5R21 */
DATA;
#5=PRODUCT('EOLX1.2-D-130-006_A','','',(#2)) ;
#1=APPLICATION_CONTEXT('configuration controlled 3D design of mechanical parts and assemblies') ;
#14=PRODUCT_DEFINITION('',' ',#6,#3) ;
#16=SECURITY_CLASSIFICATION(' ',' ',#15) ;
#15=SECURITY_CLASSIFICATION_LEVEL('unclassified') ;
#47=CARTESIAN_POINT(' ',(0.,0.,0.)) ;
#52=CARTESIAN_POINT('Axis2P3D Location',(0.,0.,0.)) ;
#57=CARTESIAN_POINT('Axis2P3D Location',(0.,1.37373870973,0.)) ;
#61=CARTESIAN_POINT('Vertex',(4.79425538604,1.37373870973,8.7758256189)) ;
#63=CARTESIAN_POINT('Vertex',(-4.79425538604,1.37373870973,-8.7758256189)) ;
#66=CARTESIAN_POINT('Line Origine',(4.67439900139,0.686869354864,8.55642997843)) ;
#70=CARTESIAN_POINT('Vertex',(4.55454261674,0.,8.33703433796)) ;
#73=CARTESIAN_POINT('Axis2P3D Location',(0.,0.,0.)) ;
#77=CARTESIAN_POINT('Vertex',(-4.55454261674,0.,-8.33703433796)) ;
#80=CARTESIAN_POINT('Line Origine',(-4.67439900139,0.686869354864,-8.55642997843)) ;
#92=CARTESIAN_POINT('Axis2P3D Location',(0.,1.37373870973,0.)) ;
#97=CARTESIAN_POINT('Axis2P3D Location',(0.,0.,0.)) ;
#109=CARTESIAN_POINT('Axis2P3D Location',(0.,27.,0.)) ;
#114=CARTESIAN_POINT('Axis2P3D Location',(0.,27.,0.)) ;
#118=CARTESIAN_POINT('Vertex',(2.39712769302,27.,4.38791280945)) ;
#120=CARTESIAN_POINT('Vertex',(-2.39712769302,27.,-4.38791280945)) ;
#123=CARTESIAN_POINT('Line Origine',(2.63684046232,27.5,4.8267040904)) ;
#127=CARTESIAN_POINT('Vertex',(2.87655323163,28.,5.26549537134)) ;
#130=CARTESIAN_POINT('Axis2P3D Location',(0.,28.,0.)) ;
#134=CARTESIAN_POINT('Vertex',(-2.87655323163,28.,-5.26549537134)) ;
#137=CARTESIAN_POINT('Line Origine',(-2.63684046232,27.5,-4.8267040904)) ;
#149=CARTESIAN_POINT('Axis2P3D Location',(0.,27.,0.)) ;
#154=CARTESIAN_POINT('Axis2P3D Location',(0.,28.,0.)) ;
#166=CARTESIAN_POINT('Axis2P3D Location',(0.,0.,9.5)) ;
#175=CARTESIAN_POINT('Axis2P3D Location',(0.,0.,0.)) ;
#179=CARTESIAN_POINT('Vertex',(-2.39712769302,0.,-4.38791280945)) ;
#181=CARTESIAN_POINT('Vertex',(2.39712769302,0.,4.38791280945)) ;
#184=CARTESIAN_POINT('Axis2P3D Location',(0.,0.,0.)) ;
#194=CARTESIAN_POINT('Axis2P3D Location',(0.,28.,6.)) ;
#199=CARTESIAN_POINT('Axis2P3D Location',(0.,28.,0.)) ;
#203=CARTESIAN_POINT('Vertex',(-4.79425538604,28.,-8.7758256189)) ;
#205=CARTESIAN_POINT('Vertex',(4.79425538604,28.,8.7758256189)) ;
#208=CARTESIAN_POINT('Axis2P3D Location',(0.,28.,0.)) ;
#222=CARTESIAN_POINT('Axis2P3D Location',(0.,14.,0.)) ;
#227=CARTESIAN_POINT('Line Origine',(-4.79425538604,14.6868693549,-8.7758256189)) ;
#232=CARTESIAN_POINT('Line Origine',(4.79425538604,14.6868693549,8.7758256189)) ;
#244=CARTESIAN_POINT('Control Point',(2.,23.,9.79795897113)) ;
#245=CARTESIAN_POINT('Control Point',(2.,23.513335617,9.79795897113)) ;
#246=CARTESIAN_POINT('Control Point',(1.83530409024,24.0266682013,9.83157738294)) ;
#247=CARTESIAN_POINT('Control Point',(1.50759191729,24.4646174702,9.89953252212)) ;
#248=CARTESIAN_POINT('Control Point',(0.843642428366,24.9208909164,9.98316974264)) ;
#249=CARTESIAN_POINT('Control Point',(0.0702405940721,25.0238577566,10.0048918353)) ;
#250=CARTESIAN_POINT('Control Point',(-0.191356877323,25.0159934027,10.0032340096)) ;
#251=CARTESIAN_POINT('Control Point',(-0.933023463313,24.8716053331,9.9733219922)) ;
#252=CARTESIAN_POINT('Control Point',(-1.55220335262,24.4027498977,9.89025816325)) ;
#253=CARTESIAN_POINT('Control Point',(-1.85032630606,23.9787268497,9.82851098597)) ;
#254=CARTESIAN_POINT('Control Point',(-2.,23.4893648029,9.79795897113)) ;
#255=CARTESIAN_POINT('Control Point',(-2.,23.,9.79795897113)) ;
#256=CARTESIAN_POINT('Vertex',(2.,23.,9.79795897113)) ;
#258=CARTESIAN_POINT('Vertex',(-2.,23.,9.79795897113)) ;
#262=CARTESIAN_POINT('Control Point',(-2.,23.,9.79795897113)) ;
#263=CARTESIAN_POINT('Control Point',(-2.,22.486664383,9.79795897113)) ;
#264=CARTESIAN_POINT('Control Point',(-1.83530409026,21.9733317988,9.83157738293)) ;
#265=CARTESIAN_POINT('Control Point',(-1.50759191724,21.5353825298,9.89953252213)) ;
#266=CARTESIAN_POINT('Control Point',(-0.843642428344,21.0791090836,9.98316974264)) ;
#267=CARTESIAN_POINT('Control Point',(-0.0702405940935,20.9761422434,10.0048918353)) ;
#268=CARTESIAN_POINT('Control Point',(0.191356877344,20.9840065973,10.0032340096)) ;
#269=CARTESIAN_POINT('Control Point',(0.933023463316,21.1283946669,9.9733219922)) ;
#270=CARTESIAN_POINT('Control Point',(1.55220335261,21.5972501023,9.89025816325)) ;
#271=CARTESIAN_POINT('Control Point',(1.85032630607,22.0212731503,9.82851098597)) ;
#272=CARTESIAN_POINT('Control Point',(2.,22.5106351971,9.79795897113)) ;
#273=CARTESIAN_POINT('Control Point',(2.,23.,9.79795897113)) ;
#287=CARTESIAN_POINT('Control Point',(-2.,23.,-9.79795897113)) ;
#288=CARTESIAN_POINT('Control Point',(-2.,22.486664383,-9.79795897113)) ;
#289=CARTESIAN_POINT('Control Point',(-1.83530409026,21.9733317988,-9.83157738293)) ;
#290=CARTESIAN_POINT('Control Point',(-1.50759191725,21.5353825298,-9.89953252213)) ;
#291=CARTESIAN_POINT('Control Point',(-0.843642428338,21.0791090836,-9.98316974264)) ;
#292=CARTESIAN_POINT('Control Point',(-0.0702405940751,20.9761422434,-10.0048918353)) ;
#293=CARTESIAN_POINT('Control Point',(0.191356877326,20.9840065973,-10.0032340096)) ;
#294=CARTESIAN_POINT('Control Point',(0.933023463319,21.1283946669,-9.9733219922)) ;
#295=CARTESIAN_POINT('Control Point',(1.55220335263,21.5972501024,-9.89025816325)) ;
#296=CARTESIAN_POINT('Control Point',(1.85032630606,22.0212731502,-9.82851098597)) ;
#297=CARTESIAN_POINT('Control Point',(2.,22.5106351971,-9.79795897113)) ;
#298=CARTESIAN_POINT('Control Point',(2.,23.,-9.79795897113)) ;
#299=CARTESIAN_POINT('Vertex',(-2.,23.,-9.79795897113)) ;
#301=CARTESIAN_POINT('Vertex',(2.,23.,-9.79795897113)) ;
#305=CARTESIAN_POINT('Control Point',(2.,23.,-9.79795897113)) ;
#306=CARTESIAN_POINT('Control Point',(2.,23.513335617,-9.79795897113)) ;
#307=CARTESIAN_POINT('Control Point',(1.83530409021,24.0266682013,-9.83157738294)) ;
#308=CARTESIAN_POINT('Control Point',(1.50759191736,24.4646174701,-9.89953252211)) ;
#309=CARTESIAN_POINT('Control Point',(0.843642428408,24.9208909164,-9.98316974264)) ;
#310=CARTESIAN_POINT('Control Point',(0.0702405940755,25.0238577566,-10.0048918353)) ;
#311=CARTESIAN_POINT('Control Point',(-0.191356877326,25.0159934027,-10.0032340096)) ;
#312=CARTESIAN_POINT('Control Point',(-0.93302346328,24.8716053331,-9.9733219922)) ;
#313=CARTESIAN_POINT('Control Point',(-1.55220335256,24.4027498977,-9.89025816326)) ;
#314=CARTESIAN_POINT('Control Point',(-1.85032630608,23.9787268497,-9.82851098597)) ;
#315=CARTESIAN_POINT('Control Point',(-2.,23.4893648029,-9.79795897113)) ;
#316=CARTESIAN_POINT('Control Point',(-2.,23.,-9.79795897113)) ;
#323=CARTESIAN_POINT('Axis2P3D Location',(0.,14.,0.)) ;
#328=CARTESIAN_POINT('Line Origine',(-2.39712769302,13.5,-4.38791280945)) ;
#333=CARTESIAN_POINT('Line Origine',(2.39712769302,13.5,4.38791280945)) ;
#345=CARTESIAN_POINT('Control Point',(-2.,23.,4.58257569496)) ;
#346=CARTESIAN_POINT('Control Point',(-2.,22.7429266008,4.58257569496)) ;
#347=CARTESIAN_POINT('Control Point',(-1.95869579216,22.4858540709,4.60060232914)) ;
#348=CARTESIAN_POINT('Control Point',(-1.87608831318,22.2397772692,4.6367251107)) ;
#349=CARTESIAN_POINT('Control Point',(-1.57755713373,21.6681889021,4.75477047701)) ;
#350=CARTESIAN_POINT('Control Point',(-1.07954198844,21.2506759969,4.8985505703)) ;
#351=CARTESIAN_POINT('Control Point',(-0.720386705288,21.0712992993,4.97152552549)) ;
#352=CARTESIAN_POINT('Control Point',(0.0659886312077,20.9060526767,5.03752973259)) ;
#353=CARTESIAN_POINT('Control Point',(0.838221767816,21.1204955784,4.95185523596)) ;
#354=CARTESIAN_POINT('Control Point',(1.18253550797,21.3193357329,4.87314655531)) ;
#355=CARTESIAN_POINT('Control Point',(1.63606564992,21.7475470757,4.73273317033)) ;
#356=CARTESIAN_POINT('Control Point',(1.89808850568,22.3088140467,4.62710651072)) ;
#357=CARTESIAN_POINT('Control Point',(1.9660401449,22.5338000361,4.59739699082)) ;
#358=CARTESIAN_POINT('Control Point',(2.,22.7668996607,4.58257569496)) ;
#359=CARTESIAN_POINT('Control Point',(2.,23.,4.58257569496)) ;
#360=CARTESIAN_POINT('Vertex',(-2.,23.,4.58257569496)) ;
#362=CARTESIAN_POINT('Vertex',(2.,23.,4.58257569496)) ;
#366=CARTESIAN_POINT('Control Point',(2.,23.,4.58257569496)) ;
#367=CARTESIAN_POINT('Control Point',(2.,23.2570733992,4.58257569496)) ;
#368=CARTESIAN_POINT('Control Point',(1.95869579215,23.5141459292,4.60060232914)) ;
#369=CARTESIAN_POINT('Control Point',(1.87608831319,23.7602227308,4.6367251107)) ;
#370=CARTESIAN_POINT('Control Point',(1.57755713374,24.3318110979,4.75477047701)) ;
#371=CARTESIAN_POINT('Control Point',(1.07954198846,24.7493240031,4.89855057029)) ;
#372=CARTESIAN_POINT('Control Point',(0.720386705264,24.9287007007,4.97152552549)) ;
#373=CARTESIAN_POINT('Control Point',(-0.0659886312096,25.0939473233,5.03752973259)) ;
#374=CARTESIAN_POINT('Control Point',(-0.838221767795,24.8795044216,4.95185523597)) ;
#375=CARTESIAN_POINT('Control Point',(-1.18253550799,24.6806642671,4.8731465553)) ;
#376=CARTESIAN_POINT('Control Point',(-1.63606564993,24.2524529243,4.73273317033)) ;
#377=CARTESIAN_POINT('Control Point',(-1.89808850568,23.6911859533,4.62710651072)) ;
#378=CARTESIAN_POINT('Control Point',(-1.9660401449,23.4661999639,4.59739699082)) ;
#379=CARTESIAN_POINT('Control Point',(-2.,23.2331003393,4.58257569496)) ;
#380=CARTESIAN_POINT('Control Point',(-2.,23.,4.58257569496)) ;
#394=CARTESIAN_POINT('Control Point',(2.,23.,-4.58257569496)) ;
#395=CARTESIAN_POINT('Control Point',(2.,23.2570733992,-4.58257569496)) ;
#396=CARTESIAN_POINT('Control Point',(1.95869579215,23.5141459292,-4.60060232914)) ;
#397=CARTESIAN_POINT('Control Point',(1.87608831319,23.7602227308,-4.6367251107)) ;
#398=CARTESIAN_POINT('Control Point',(1.57755713374,24.3318110979,-4.75477047701)) ;
#399=CARTESIAN_POINT('Control Point',(1.07954198844,24.7493240031,-4.8985505703)) ;
#400=CARTESIAN_POINT('Control Point',(0.720386705286,24.9287007007,-4.97152552549)) ;
#401=CARTESIAN_POINT('Control Point',(-0.0659886311851,25.0939473233,-5.03752973259)) ;
#402=CARTESIAN_POINT('Control Point',(-0.838221767768,24.8795044216,-4.95185523597)) ;
#403=CARTESIAN_POINT('Control Point',(-1.18253550801,24.6806642671,-4.8731465553)) ;
#404=CARTESIAN_POINT('Control Point',(-1.63606564993,24.2524529243,-4.73273317033)) ;
#405=CARTESIAN_POINT('Control Point',(-1.89808850568,23.6911859533,-4.62710651072)) ;
#406=CARTESIAN_POINT('Control Point',(-1.9660401449,23.4661999639,-4.59739699082)) ;
#407=CARTESIAN_POINT('Control Point',(-2.,23.2331003393,-4.58257569496)) ;
#408=CARTESIAN_POINT('Control Point',(-2.,23.,-4.58257569496)) ;
#409=CARTESIAN_POINT('Vertex',(2.,23.,-4.58257569496)) ;
#411=CARTESIAN_POINT('Vertex',(-2.,23.,-4.58257569496)) ;
#415=CARTESIAN_POINT('Control Point',(-2.,23.,-4.58257569496)) ;
#416=CARTESIAN_POINT('Control Point',(-2.,22.7429266008,-4.58257569496)) ;
#417=CARTESIAN_POINT('Control Point',(-1.95869579216,22.4858540709,-4.60060232914)) ;
#418=CARTESIAN_POINT('Control Point',(-1.87608831318,22.2397772692,-4.6367251107)) ;
#419=CARTESIAN_POINT('Control Point',(-1.57755713374,21.6681889021,-4.75477047701)) ;
#420=CARTESIAN_POINT('Control Point',(-1.07954198845,21.2506759969,-4.8985505703)) ;
#421=CARTESIAN_POINT('Control Point',(-0.720386705277,21.0712992993,-4.97152552549)) ;
#422=CARTESIAN_POINT('Control Point',(0.0659886311901,20.9060526767,-5.03752973259)) ;
#423=CARTESIAN_POINT('Control Point',(0.83822176777,21.1204955784,-4.95185523597)) ;
#424=CARTESIAN_POINT('Control Point',(1.182535508,21.3193357329,-4.8731465553)) ;
#425=CARTESIAN_POINT('Control Point',(1.63606564993,21.7475470757,-4.73273317033)) ;
#426=CARTESIAN_POINT('Control Point',(1.89808850568,22.3088140467,-4.62710651072)) ;
#427=CARTESIAN_POINT('Control Point',(1.9660401449,22.5338000361,-4.59739699082)) ;
#428=CARTESIAN_POINT('Control Point',(2.,22.7668996607,-4.58257569496)) ;
#429=CARTESIAN_POINT('Control Point',(2.,23.,-4.58257569496)) ;
#436=CARTESIAN_POINT('Axis2P3D Location',(0.,23.,0.)) ;
#441=CARTESIAN_POINT('Line Origine',(-2.,23.,0.)) ;
#446=CARTESIAN_POINT('Line Origine',(2.,23.,0.)) ;
#465=CARTESIAN_POINT('Line Origine',(2.,23.,0.)) ;
#470=CARTESIAN_POINT('Line Origine',(-2.,23.,0.)) ;
#492=CARTESIAN_POINT('Axis2P3D Location',(0.,0.,0.)) ;
#53=DIRECTION('Axis2P3D Direction',(0.,1.,0.)) ;
#54=DIRECTION('Axis2P3D XDirection',(0.479425538604,0.,0.87758256189)) ;
#58=DIRECTION('Axis2P3D Direction',(0.,1.,0.)) ;
#67=DIRECTION('Vector Direction',(0.163973191427,0.939692620786,0.300150913598)) ;
#74=DIRECTION('Axis2P3D Direction',(0.,1.,0.)) ;
#81=DIRECTION('Vector Direction',(-0.163973191427,0.939692620786,-0.300150913598)) ;
#93=DIRECTION('Axis2P3D Direction',(0.,1.,0.)) ;
#98=DIRECTION('Axis2P3D Direction',(0.,1.,0.)) ;
#110=DIRECTION('Axis2P3D Direction',(0.,1.,0.)) ;
#111=DIRECTION('Axis2P3D XDirection',(0.479425538604,0.,0.87758256189)) ;
#115=DIRECTION('Axis2P3D Direction',(0.,1.,0.)) ;
#124=DIRECTION('Vector Direction',(0.339005049421,0.707106781187,0.620544580564)) ;
#131=DIRECTION('Axis2P3D Direction',(0.,1.,0.)) ;
#138=DIRECTION('Vector Direction',(-0.339005049421,0.707106781187,-0.620544580564)) ;
#150=DIRECTION('Axis2P3D Direction',(0.,1.,0.)) ;
#155=DIRECTION('Axis2P3D Direction',(0.,1.,0.)) ;
#167=DIRECTION('Axis2P3D Direction',(0.,1.,0.)) ;
#168=DIRECTION('Axis2P3D XDirection',(1.,-0.,0.)) ;
#176=DIRECTION('Axis2P3D Direction',(0.,1.,0.)) ;
#185=DIRECTION('Axis2P3D Direction',(0.,1.,0.)) ;
#195=DIRECTION('Axis2P3D Direction',(0.,1.,0.)) ;
#196=DIRECTION('Axis2P3D XDirection',(1.,-0.,0.)) ;
#200=DIRECTION('Axis2P3D Direction',(0.,1.,0.)) ;
#209=DIRECTION('Axis2P3D Direction',(0.,1.,0.)) ;
#223=DIRECTION('Axis2P3D Direction',(0.,1.,0.)) ;
#224=DIRECTION('Axis2P3D XDirection',(0.479425538604,-0.,0.87758256189)) ;
#228=DIRECTION('Vector Direction',(0.,1.,0.)) ;
#233=DIRECTION('Vector Direction',(0.,1.,0.)) ;
#324=DIRECTION('Axis2P3D Direction',(0.,1.,0.)) ;
#325=DIRECTION('Axis2P3D XDirection',(0.479425538604,-0.,0.87758256189)) ;
#329=DIRECTION('Vector Direction',(0.,1.,0.)) ;
#334=DIRECTION('Vector Direction',(0.,1.,0.)) ;
#437=DIRECTION('Axis2P3D Direction',(0.,0.,1.)) ;
#438=DIRECTION('Axis2P3D XDirection',(1.,0.,0.)) ;
#442=DIRECTION('Vector Direction',(0.,0.,1.)) ;
#447=DIRECTION('Vector Direction',(0.,0.,1.)) ;
#466=DIRECTION('Vector Direction',(0.,0.,1.)) ;
#471=DIRECTION('Vector Direction',(0.,0.,1.)) ;
#493=DIRECTION('Axis2P3D Direction',(0.,0.,1.)) ;
#494=DIRECTION('Axis2P3D XDirection',(1.,0.,0.)) ;
#48=AXIS2_PLACEMENT_3D(' ',#47,$,$) ;
#55=AXIS2_PLACEMENT_3D('Cone Axis2P3D',#52,#53,#54) ;
#59=AXIS2_PLACEMENT_3D('Circle Axis2P3D',#57,#58,$) ;
#75=AXIS2_PLACEMENT_3D('Circle Axis2P3D',#73,#74,$) ;
#94=AXIS2_PLACEMENT_3D('Circle Axis2P3D',#92,#93,$) ;
#99=AXIS2_PLACEMENT_3D('Circle Axis2P3D',#97,#98,$) ;
#112=AXIS2_PLACEMENT_3D('Cone Axis2P3D',#109,#110,#111) ;
#116=AXIS2_PLACEMENT_3D('Circle Axis2P3D',#114,#115,$) ;
#132=AXIS2_PLACEMENT_3D('Circle Axis2P3D',#130,#131,$) ;
#151=AXIS2_PLACEMENT_3D('Circle Axis2P3D',#149,#150,$) ;
#156=AXIS2_PLACEMENT_3D('Circle Axis2P3D',#154,#155,$) ;
#169=AXIS2_PLACEMENT_3D('Plane Axis2P3D',#166,#167,#168) ;
#177=AXIS2_PLACEMENT_3D('Circle Axis2P3D',#175,#176,$) ;
#186=AXIS2_PLACEMENT_3D('Circle Axis2P3D',#184,#185,$) ;
#197=AXIS2_PLACEMENT_3D('Plane Axis2P3D',#194,#195,#196) ;
#201=AXIS2_PLACEMENT_3D('Circle Axis2P3D',#199,#200,$) ;
#210=AXIS2_PLACEMENT_3D('Circle Axis2P3D',#208,#209,$) ;
#225=AXIS2_PLACEMENT_3D('Cylinder Axis2P3D',#222,#223,#224) ;
#326=AXIS2_PLACEMENT_3D('Cylinder Axis2P3D',#323,#324,#325) ;
#439=AXIS2_PLACEMENT_3D('Cylinder Axis2P3D',#436,#437,#438) ;
#495=AXIS2_PLACEMENT_3D('Absolute Axis System',#492,#493,#494) ;
#40=PRODUCT_DEFINITION_SHAPE(' ',' ',#14) ;
#31=APPROVAL_PERSON_ORGANIZATION(#25,#21,#19) ;
#25=PERSON_AND_ORGANIZATION(#22,#23) ;
#22=PERSON(' ',' ',' ',$,$,$) ;
#23=ORGANIZATION(' ',' ',' ') ;
#21=APPROVAL(#20,' ') ;
#20=APPROVAL_STATUS('not_yet_approved') ;
#19=APPROVAL_ROLE('APPROVER') ;
#13=DATE_AND_TIME(#11,#12) ;
#12=LOCAL_TIME(23,15,48.,#10) ;
#10=COORDINATED_UNIVERSAL_TIME_OFFSET(0,0,.AHEAD.) ;
#86=ORIENTED_EDGE('',*,*,#65,.F.) ;
#87=ORIENTED_EDGE('',*,*,#72,.T.) ;
#88=ORIENTED_EDGE('',*,*,#79,.T.) ;
#89=ORIENTED_EDGE('',*,*,#84,.F.) ;
#103=ORIENTED_EDGE('',*,*,#96,.F.) ;
#104=ORIENTED_EDGE('',*,*,#84,.T.) ;
#105=ORIENTED_EDGE('',*,*,#101,.T.) ;
#106=ORIENTED_EDGE('',*,*,#72,.F.) ;
#143=ORIENTED_EDGE('',*,*,#122,.F.) ;
#144=ORIENTED_EDGE('',*,*,#129,.T.) ;
#145=ORIENTED_EDGE('',*,*,#136,.T.) ;
#146=ORIENTED_EDGE('',*,*,#141,.F.) ;
#160=ORIENTED_EDGE('',*,*,#153,.F.) ;
#161=ORIENTED_EDGE('',*,*,#141,.T.) ;
#162=ORIENTED_EDGE('',*,*,#158,.T.) ;
#163=ORIENTED_EDGE('',*,*,#129,.F.) ;
#172=ORIENTED_EDGE('',*,*,#79,.F.) ;
#173=ORIENTED_EDGE('',*,*,#101,.F.) ;
#190=ORIENTED_EDGE('',*,*,#183,.T.) ;
#191=ORIENTED_EDGE('',*,*,#188,.T.) ;
#214=ORIENTED_EDGE('',*,*,#207,.T.) ;
#215=ORIENTED_EDGE('',*,*,#212,.T.) ;
#218=ORIENTED_EDGE('',*,*,#136,.F.) ;
#219=ORIENTED_EDGE('',*,*,#158,.F.) ;
#238=ORIENTED_EDGE('',*,*,#207,.F.) ;
#239=ORIENTED_EDGE('',*,*,#231,.T.) ;
#240=ORIENTED_EDGE('',*,*,#96,.T.) ;
#241=ORIENTED_EDGE('',*,*,#236,.F.) ;
#276=ORIENTED_EDGE('',*,*,#260,.F.) ;
#277=ORIENTED_EDGE('',*,*,#274,.F.) ;
#281=ORIENTED_EDGE('',*,*,#212,.F.) ;
#282=ORIENTED_EDGE('',*,*,#236,.T.) ;
#283=ORIENTED_EDGE('',*,*,#65,.T.) ;
#284=ORIENTED_EDGE('',*,*,#231,.F.) ;
#319=ORIENTED_EDGE('',*,*,#303,.T.) ;
#320=ORIENTED_EDGE('',*,*,#317,.T.) ;
#339=ORIENTED_EDGE('',*,*,#183,.F.) ;
#340=ORIENTED_EDGE('',*,*,#332,.T.) ;
#341=ORIENTED_EDGE('',*,*,#153,.T.) ;
#342=ORIENTED_EDGE('',*,*,#337,.F.) ;
#383=ORIENTED_EDGE('',*,*,#364,.T.) ;
#384=ORIENTED_EDGE('',*,*,#381,.T.) ;
#388=ORIENTED_EDGE('',*,*,#188,.F.) ;
#389=ORIENTED_EDGE('',*,*,#337,.T.) ;
#390=ORIENTED_EDGE('',*,*,#122,.T.) ;
#391=ORIENTED_EDGE('',*,*,#332,.F.) ;
#432=ORIENTED_EDGE('',*,*,#413,.F.) ;
#433=ORIENTED_EDGE('',*,*,#430,.F.) ;
#452=ORIENTED_EDGE('',*,*,#445,.F.) ;
#453=ORIENTED_EDGE('',*,*,#274,.T.) ;
#454=ORIENTED_EDGE('',*,*,#450,.T.) ;
#455=ORIENTED_EDGE('',*,*,#364,.F.) ;
#459=ORIENTED_EDGE('',*,*,#450,.F.) ;
#460=ORIENTED_EDGE('',*,*,#260,.T.) ;
#461=ORIENTED_EDGE('',*,*,#445,.T.) ;
#462=ORIENTED_EDGE('',*,*,#381,.F.) ;
#476=ORIENTED_EDGE('',*,*,#469,.T.) ;
#477=ORIENTED_EDGE('',*,*,#303,.F.) ;
#478=ORIENTED_EDGE('',*,*,#474,.F.) ;
#479=ORIENTED_EDGE('',*,*,#430,.T.) ;
#483=ORIENTED_EDGE('',*,*,#474,.T.) ;
#484=ORIENTED_EDGE('',*,*,#317,.F.) ;
#485=ORIENTED_EDGE('',*,*,#469,.F.) ;
#486=ORIENTED_EDGE('',*,*,#413,.T.) ;
#192=FACE_BOUND('',#189,.T.) ;
#220=FACE_BOUND('',#217,.T.) ;
#278=FACE_BOUND('',#275,.T.) ;
#321=FACE_BOUND('',#318,.T.) ;
#385=FACE_BOUND('',#382,.T.) ;
#434=FACE_BOUND('',#431,.T.) ;
#51=CLOSED_SHELL('Closed Shell',(#91,#108,#148,#165,#193,#221,#279,#322,#386,#435,#457,#464,#481,#488)) ;
#68=VECTOR('Line Direction',#67,1.) ;
#82=VECTOR('Line Direction',#81,1.) ;
#125=VECTOR('Line Direction',#124,1.) ;
#139=VECTOR('Line Direction',#138,1.) ;
#229=VECTOR('Line Direction',#228,1.) ;
#234=VECTOR('Line Direction',#233,1.) ;
#330=VECTOR('Line Direction',#329,1.) ;
#335=VECTOR('Line Direction',#334,1.) ;
#443=VECTOR('Line Direction',#442,1.) ;
#448=VECTOR('Line Direction',#447,1.) ;
#467=VECTOR('Line Direction',#466,1.) ;
#472=VECTOR('Line Direction',#471,1.) ;
#490=ADVANCED_BREP_SHAPE_REPRESENTATION('NONE',(#489),#46) ;
#49=SHAPE_REPRESENTATION(' ',(#48),#46) ;
#91=ADVANCED_FACE('PartBody',(#90),#56,.T.) ;
#108=ADVANCED_FACE('PartBody',(#107),#56,.T.) ;
#148=ADVANCED_FACE('PartBody',(#147),#113,.F.) ;
#165=ADVANCED_FACE('PartBody',(#164),#113,.F.) ;
#193=ADVANCED_FACE('PartBody',(#174,#192),#170,.F.) ;
#221=ADVANCED_FACE('PartBody',(#216,#220),#198,.T.) ;
#279=ADVANCED_FACE('PartBody',(#242,#278),#226,.T.) ;
#322=ADVANCED_FACE('PartBody',(#285,#321),#226,.T.) ;
#386=ADVANCED_FACE('PartBody',(#343,#385),#327,.F.) ;
#435=ADVANCED_FACE('PartBody',(#392,#434),#327,.F.) ;
#457=ADVANCED_FACE('PartBody',(#456),#440,.F.) ;
#464=ADVANCED_FACE('PartBody',(#463),#440,.F.) ;
#481=ADVANCED_FACE('PartBody',(#480),#440,.F.) ;
#488=ADVANCED_FACE('PartBody',(#487),#440,.F.) ;
#4=APPLICATION_PROTOCOL_DEFINITION('international standard','config_control_design',1994,#1) ;
#32=APPROVAL_DATE_TIME(#13,#21) ;
#243=B_SPLINE_CURVE_WITH_KNOTS('',5,(#244,#245,#246,#247,#248,#249,#250,#251,#252,#253,#254,#255),.UNSPECIFIED.,.F.,.U.,(6,3,3,6),(0.,3.62983095806,5.44778106944,8.90811277575),.UNSPECIFIED.) ;
#261=B_SPLINE_CURVE_WITH_KNOTS('',5,(#262,#263,#264,#265,#266,#267,#268,#269,#270,#271,#272,#273),.UNSPECIFIED.,.F.,.U.,(6,3,3,6),(0.,3.62983095784,5.44778106914,8.90811277541),.UNSPECIFIED.) ;
#286=B_SPLINE_CURVE_WITH_KNOTS('',5,(#287,#288,#289,#290,#291,#292,#293,#294,#295,#296,#297,#298),.UNSPECIFIED.,.F.,.U.,(6,3,3,6),(0.,3.62983095786,5.44778106922,8.90811277558),.UNSPECIFIED.) ;
#304=B_SPLINE_CURVE_WITH_KNOTS('',5,(#305,#306,#307,#308,#309,#310,#311,#312,#313,#314,#315,#316),.UNSPECIFIED.,.F.,.U.,(6,3,3,6),(0.,3.62983095835,5.44778106971,8.90811277578),.UNSPECIFIED.) ;
#344=B_SPLINE_CURVE_WITH_KNOTS('',5,(#345,#346,#347,#348,#349,#350,#351,#352,#353,#354,#355,#356,#357,#358,#359),.UNSPECIFIED.,.F.,.U.,(6,3,3,3,6),(0.,1.81778343831,4.58070581447,7.33147855567,8.97974686176),.UNSPECIFIED.) ;
#365=B_SPLINE_CURVE_WITH_KNOTS('',5,(#366,#367,#368,#369,#370,#371,#372,#373,#374,#375,#376,#377,#378,#379,#380),.UNSPECIFIED.,.F.,.U.,(6,3,3,3,6),(0.,1.81778343836,4.58070581443,7.33147855556,8.97974686165),.UNSPECIFIED.) ;
#393=B_SPLINE_CURVE_WITH_KNOTS('',5,(#394,#395,#396,#397,#398,#399,#400,#401,#402,#403,#404,#405,#406,#407,#408),.UNSPECIFIED.,.F.,.U.,(6,3,3,3,6),(0.,1.81778343836,4.5807058145,7.33147855554,8.97974686163),.UNSPECIFIED.) ;
#414=B_SPLINE_CURVE_WITH_KNOTS('',5,(#415,#416,#417,#418,#419,#420,#421,#422,#423,#424,#425,#426,#427,#428,#429),.UNSPECIFIED.,.F.,.U.,(6,3,3,3,6),(0.,1.81778343833,4.58070581445,7.33147855549,8.97974686157),.UNSPECIFIED.) ;
#489=MANIFOLD_SOLID_BREP('PartBody',#51) ;
#11=CALENDAR_DATE(2020,30,1) ;
#30=CC_DESIGN_APPROVAL(#21,(#16,#6,#14)) ;
#18=CC_DESIGN_DATE_AND_TIME_ASSIGNMENT(#13,#17,(#16)) ;
#29=CC_DESIGN_DATE_AND_TIME_ASSIGNMENT(#13,#28,(#14)) ;
#17=DATE_TIME_ROLE('classification_date') ;
#28=DATE_TIME_ROLE('creation_date') ;
#27=CC_DESIGN_PERSON_AND_ORGANIZATION_ASSIGNMENT(#25,#26,(#16)) ;
#33=CC_DESIGN_PERSON_AND_ORGANIZATION_ASSIGNMENT(#25,#34,(#6)) ;
#35=CC_DESIGN_PERSON_AND_ORGANIZATION_ASSIGNMENT(#25,#36,(#6,#14)) ;
#37=CC_DESIGN_PERSON_AND_ORGANIZATION_ASSIGNMENT(#25,#38,(#5)) ;
#26=PERSON_AND_ORGANIZATION_ROLE('classification_officer') ;
#34=PERSON_AND_ORGANIZATION_ROLE('design_supplier') ;
#36=PERSON_AND_ORGANIZATION_ROLE('creator') ;
#38=PERSON_AND_ORGANIZATION_ROLE('design_owner') ;
#39=CC_DESIGN_SECURITY_CLASSIFICATION(#16,(#6)) ;
#60=CIRCLE('generated circle',#59,10.) ;
#76=CIRCLE('generated circle',#75,9.5) ;
#95=CIRCLE('generated circle',#94,10.) ;
#100=CIRCLE('generated circle',#99,9.5) ;
#117=CIRCLE('generated circle',#116,5.) ;
#133=CIRCLE('generated circle',#132,6.) ;
#152=CIRCLE('generated circle',#151,5.) ;
#157=CIRCLE('generated circle',#156,6.) ;
#178=CIRCLE('generated circle',#177,5.) ;
#187=CIRCLE('generated circle',#186,5.) ;
#202=CIRCLE('generated circle',#201,10.) ;
#211=CIRCLE('generated circle',#210,10.) ;
#56=CONICAL_SURFACE('Cone',#55,9.5,0.349065850399) ;
#113=CONICAL_SURFACE('Cone',#112,5.,0.785398163397) ;
#491=SHAPE_REPRESENTATION_RELATIONSHIP(' ',' ',#49,#490) ;
#226=CYLINDRICAL_SURFACE('generated cylinder',#225,10.) ;
#327=CYLINDRICAL_SURFACE('generated cylinder',#326,5.) ;
#440=CYLINDRICAL_SURFACE('generated cylinder',#439,2.) ;
#3=DESIGN_CONTEXT(' ',#1,'design') ;
#65=EDGE_CURVE('',#62,#64,#60,.T.) ;
#72=EDGE_CURVE('',#62,#71,#69,.F.) ;
#79=EDGE_CURVE('',#71,#78,#76,.T.) ;
#84=EDGE_CURVE('',#64,#78,#83,.F.) ;
#96=EDGE_CURVE('',#64,#62,#95,.T.) ;
#101=EDGE_CURVE('',#78,#71,#100,.T.) ;
#122=EDGE_CURVE('',#119,#121,#117,.T.) ;
#129=EDGE_CURVE('',#119,#128,#126,.T.) ;
#136=EDGE_CURVE('',#128,#135,#133,.T.) ;
#141=EDGE_CURVE('',#121,#135,#140,.T.) ;
#153=EDGE_CURVE('',#121,#119,#152,.T.) ;
#158=EDGE_CURVE('',#135,#128,#157,.T.) ;
#183=EDGE_CURVE('',#180,#182,#178,.T.) ;
#188=EDGE_CURVE('',#182,#180,#187,.T.) ;
#207=EDGE_CURVE('',#204,#206,#202,.T.) ;
#212=EDGE_CURVE('',#206,#204,#211,.T.) ;
#231=EDGE_CURVE('',#204,#64,#230,.F.) ;
#236=EDGE_CURVE('',#206,#62,#235,.F.) ;
#260=EDGE_CURVE('',#257,#259,#243,.T.) ;
#274=EDGE_CURVE('',#259,#257,#261,.T.) ;
#303=EDGE_CURVE('',#300,#302,#286,.T.) ;
#317=EDGE_CURVE('',#302,#300,#304,.T.) ;
#332=EDGE_CURVE('',#180,#121,#331,.T.) ;
#337=EDGE_CURVE('',#182,#119,#336,.T.) ;
#364=EDGE_CURVE('',#361,#363,#344,.T.) ;
#381=EDGE_CURVE('',#363,#361,#365,.T.) ;
#413=EDGE_CURVE('',#410,#412,#393,.T.) ;
#430=EDGE_CURVE('',#412,#410,#414,.T.) ;
#445=EDGE_CURVE('',#259,#361,#444,.F.) ;
#450=EDGE_CURVE('',#257,#363,#449,.F.) ;
#469=EDGE_CURVE('',#410,#302,#468,.F.) ;
#474=EDGE_CURVE('',#412,#300,#473,.F.) ;
#85=EDGE_LOOP('',(#86,#87,#88,#89)) ;
#102=EDGE_LOOP('',(#103,#104,#105,#106)) ;
#142=EDGE_LOOP('',(#143,#144,#145,#146)) ;
#159=EDGE_LOOP('',(#160,#161,#162,#163)) ;
#171=EDGE_LOOP('',(#172,#173)) ;
#189=EDGE_LOOP('',(#190,#191)) ;
#213=EDGE_LOOP('',(#214,#215)) ;
#217=EDGE_LOOP('',(#218,#219)) ;
#237=EDGE_LOOP('',(#238,#239,#240,#241)) ;
#275=EDGE_LOOP('',(#276,#277)) ;
#280=EDGE_LOOP('',(#281,#282,#283,#284)) ;
#318=EDGE_LOOP('',(#319,#320)) ;
#338=EDGE_LOOP('',(#339,#340,#341,#342)) ;
#382=EDGE_LOOP('',(#383,#384)) ;
#387=EDGE_LOOP('',(#388,#389,#390,#391)) ;
#431=EDGE_LOOP('',(#432,#433)) ;
#451=EDGE_LOOP('',(#452,#453,#454,#455)) ;
#458=EDGE_LOOP('',(#459,#460,#461,#462)) ;
#475=EDGE_LOOP('',(#476,#477,#478,#479)) ;
#482=EDGE_LOOP('',(#483,#484,#485,#486)) ;
#90=FACE_OUTER_BOUND('',#85,.T.) ;
#107=FACE_OUTER_BOUND('',#102,.T.) ;
#147=FACE_OUTER_BOUND('',#142,.T.) ;
#164=FACE_OUTER_BOUND('',#159,.T.) ;
#174=FACE_OUTER_BOUND('',#171,.T.) ;
#216=FACE_OUTER_BOUND('',#213,.T.) ;
#242=FACE_OUTER_BOUND('',#237,.T.) ;
#285=FACE_OUTER_BOUND('',#280,.T.) ;
#343=FACE_OUTER_BOUND('',#338,.T.) ;
#392=FACE_OUTER_BOUND('',#387,.T.) ;
#456=FACE_OUTER_BOUND('',#451,.T.) ;
#463=FACE_OUTER_BOUND('',#458,.T.) ;
#480=FACE_OUTER_BOUND('',#475,.T.) ;
#487=FACE_OUTER_BOUND('',#482,.T.) ;
#45=UNCERTAINTY_MEASURE_WITH_UNIT(LENGTH_MEASURE(0.005),#41,'distance_accuracy_value','CONFUSED CURVE UNCERTAINTY') ;
#69=LINE('Line',#66,#68) ;
#83=LINE('Line',#80,#82) ;
#126=LINE('Line',#123,#125) ;
#140=LINE('Line',#137,#139) ;
#230=LINE('Line',#227,#229) ;
#235=LINE('Line',#232,#234) ;
#331=LINE('Line',#328,#330) ;
#336=LINE('Line',#333,#335) ;
#444=LINE('Line',#441,#443) ;
#449=LINE('Line',#446,#448) ;
#468=LINE('Line',#465,#467) ;
#473=LINE('Line',#470,#472) ;
#2=MECHANICAL_CONTEXT(' ',#1,'mechanical') ;
#24=PERSONAL_ADDRESS(' ',' ',' ',' ',' ',' ',' ',' ',' ',' ',' ',' ',(#22),' ') ;
#170=PLANE('',#169) ;
#198=PLANE('',#197) ;
#43=PLANE_ANGLE_MEASURE_WITH_UNIT(PLANE_ANGLE_MEASURE(0.0174532925199),#42) ;
#7=PRODUCT_CATEGORY('part',$) ;
#9=PRODUCT_CATEGORY_RELATIONSHIP(' ',' ',#7,#8) ;
#6=PRODUCT_DEFINITION_FORMATION_WITH_SPECIFIED_SOURCE('',' ',#5,.NOT_KNOWN.) ;
#8=PRODUCT_RELATED_PRODUCT_CATEGORY('detail',$,(#5)) ;
#50=SHAPE_DEFINITION_REPRESENTATION(#40,#49) ;
#62=VERTEX_POINT('',#61) ;
#64=VERTEX_POINT('',#63) ;
#71=VERTEX_POINT('',#70) ;
#78=VERTEX_POINT('',#77) ;
#119=VERTEX_POINT('',#118) ;
#121=VERTEX_POINT('',#120) ;
#128=VERTEX_POINT('',#127) ;
#135=VERTEX_POINT('',#134) ;
#180=VERTEX_POINT('',#179) ;
#182=VERTEX_POINT('',#181) ;
#204=VERTEX_POINT('',#203) ;
#206=VERTEX_POINT('',#205) ;
#257=VERTEX_POINT('',#256) ;
#259=VERTEX_POINT('',#258) ;
#300=VERTEX_POINT('',#299) ;
#302=VERTEX_POINT('',#301) ;
#361=VERTEX_POINT('',#360) ;
#363=VERTEX_POINT('',#362) ;
#410=VERTEX_POINT('',#409) ;
#412=VERTEX_POINT('',#411) ;
#41=(LENGTH_UNIT()NAMED_UNIT(*)SI_UNIT(.MILLI.,.METRE.)) ;
#42=(NAMED_UNIT(*)PLANE_ANGLE_UNIT()SI_UNIT($,.RADIAN.)) ;
#44=(NAMED_UNIT(*)SI_UNIT($,.STERADIAN.)SOLID_ANGLE_UNIT()) ;
#46=(GEOMETRIC_REPRESENTATION_CONTEXT(3)GLOBAL_UNCERTAINTY_ASSIGNED_CONTEXT((#45))GLOBAL_UNIT_ASSIGNED_CONTEXT((#41,#42,#44))REPRESENTATION_CONTEXT(' ',' ')) ;
ENDSEC;
END-ISO-10303-21;
