ISO-10303-21;
HEADER;
FILE_DESCRIPTION (( 'STEP AP214' ),
    '1' );
FILE_NAME ('repose pied enfant.step',
    '2020-06-05T20:06:45',
    ( '' ),
    ( '' ),
    'SwSTEP 2.0',
    'SolidWorks 2019',
    '' );
FILE_SCHEMA (( 'AUTOMOTIVE_DESIGN' ));
ENDSEC;

DATA;
#1 = CARTESIAN_POINT ( 'NONE',  ( 0.0000000000000000000, 0.0000000000000000000, -3.000000000000000000 ) ) ;
#2 = EDGE_LOOP ( 'NONE', ( #303, #335 ) ) ;
#3 = DIRECTION ( 'NONE',  ( 1.000000000000000000, 0.0000000000000000000, 0.0000000000000000000 ) ) ;
#4 = ORIENTED_EDGE ( 'NONE', *, *, #331, .F. ) ;
#5 = ADVANCED_FACE ( 'NONE', ( #221 ), #113, .F. ) ;
#6 = VECTOR ( 'NONE', #19, 1000.000000000000000 ) ;
#7 = CARTESIAN_POINT ( 'NONE',  ( 0.0000000000000000000, 0.0000000000000000000, 0.0000000000000000000 ) ) ;
#8 = CARTESIAN_POINT ( 'NONE',  ( 0.0000000000000000000, 0.0000000000000000000, -3.000000000000000000 ) ) ;
#9 = CARTESIAN_POINT ( 'NONE',  ( -41.70751073922565411, -21.54043798271135302, 0.0000000000000000000 ) ) ;
#10 = AXIS2_PLACEMENT_3D ( 'NONE', #8, #91, #317 ) ;
#11 = CARTESIAN_POINT ( 'NONE',  ( -58.94874364934724298, -31.86519496451353817, -3.000000000000000000 ) ) ;
#12 =( LENGTH_UNIT ( ) NAMED_UNIT ( * ) SI_UNIT ( .MILLI., .METRE. ) );
#13 = CYLINDRICAL_SURFACE ( 'NONE', #329, 2.750000000000002665 ) ;
#14 = AXIS2_PLACEMENT_3D ( 'NONE', #227, #34, #120 ) ;
#15 = VERTEX_POINT ( 'NONE', #29 ) ;
#16 = CARTESIAN_POINT ( 'NONE',  ( -44.45751073922564700, -21.54043798271135302, -3.000000000000000000 ) ) ;
#17 = ORIENTED_EDGE ( 'NONE', *, *, #337, .T. ) ;
#18 = ORIENTED_EDGE ( 'NONE', *, *, #30, .T. ) ;
#19 = DIRECTION ( 'NONE',  ( 0.0000000000000000000, 0.0000000000000000000, 1.000000000000000000 ) ) ;
#20 = EDGE_LOOP ( 'NONE', ( #110, #17 ) ) ;
#21 = AXIS2_PLACEMENT_3D ( 'NONE', #281, #252, #3 ) ;
#22 = CARTESIAN_POINT ( 'NONE',  ( 75.00000000000001421, 0.0000000000000000000, -3.000000000000000000 ) ) ;
#23 = PRODUCT_DEFINITION_SHAPE ( 'NONE', 'NONE',  #51 ) ;
#24 = ORIENTED_EDGE ( 'NONE', *, *, #260, .F. ) ;
#25 = ADVANCED_FACE ( 'NONE', ( #62 ), #276, .T. ) ;
#26 = CARTESIAN_POINT ( 'NONE',  ( 0.0000000000000000000, 0.0000000000000000000, -3.000000000000000000 ) ) ;
#27 = ORIENTED_EDGE ( 'NONE', *, *, #30, .F. ) ;
#28 = STYLED_ITEM ( 'NONE', ( #220 ), #306 ) ;
#29 = CARTESIAN_POINT ( 'NONE',  ( -38.95751073922566832, -21.54043798271135302, 0.0000000000000000000 ) ) ;
#30 = EDGE_CURVE ( 'NONE', #181, #15, #193, .T. ) ;
#31 = EDGE_LOOP ( 'NONE', ( #325, #245, #298, #185 ) ) ;
#32 = FACE_BOUND ( 'NONE', #133, .T. ) ;
#33 = AXIS2_PLACEMENT_3D ( 'NONE', #172, #312, #222 ) ;
#34 = DIRECTION ( 'NONE',  ( 0.0000000000000000000, 0.0000000000000000000, 1.000000000000000000 ) ) ;
#35 = CYLINDRICAL_SURFACE ( 'NONE', #10, 75.00000000000001421 ) ;
#36 = DIRECTION ( 'NONE',  ( 1.000000000000000000, 0.0000000000000000000, 0.0000000000000000000 ) ) ;
#37 = CIRCLE ( 'NONE', #204, 2.750000000000002665 ) ;
#38 = CYLINDRICAL_SURFACE ( 'NONE', #14, 2.750000000000000000 ) ;
#39 = CIRCLE ( 'NONE', #76, 2.750000000000002665 ) ;
#40 = FACE_OUTER_BOUND ( 'NONE', #2, .T. ) ;
#41 = ADVANCED_FACE ( 'NONE', ( #138 ), #314, .F. ) ;
#42 = CARTESIAN_POINT ( 'NONE',  ( 0.0000000000000000000, 0.0000000000000000000, 0.0000000000000000000 ) ) ;
#43 = ORIENTED_EDGE ( 'NONE', *, *, #68, .T. ) ;
#44 = CARTESIAN_POINT ( 'NONE',  ( 0.0000000000000000000, 0.0000000000000000000, -3.000000000000000000 ) ) ;
#45 = ORIENTED_EDGE ( 'NONE', *, *, #196, .F. ) ;
#46 = EDGE_CURVE ( 'NONE', #82, #188, #211, .T. ) ;
#47 = LINE ( 'NONE', #209, #6 ) ;
#48 = ORIENTED_EDGE ( 'NONE', *, *, #290, .T. ) ;
#49 = DIRECTION ( 'NONE',  ( 1.000000000000000000, 0.0000000000000000000, 0.0000000000000000000 ) ) ;
#50 = EDGE_LOOP ( 'NONE', ( #53, #351, #270, #240 ) ) ;
#51 = PRODUCT_DEFINITION ( 'UNKNOWN', '', #125, #152 ) ;
#52 = CARTESIAN_POINT ( 'NONE',  ( -75.00000000000001421, 9.184850993605150311E-15, 0.0000000000000000000 ) ) ;
#53 = ORIENTED_EDGE ( 'NONE', *, *, #358, .F. ) ;
#54 = CARTESIAN_POINT ( 'NONE',  ( 2.750000000000000000, 0.0000000000000000000, 0.0000000000000000000 ) ) ;
#55 = EDGE_CURVE ( 'NONE', #327, #297, #166, .T. ) ;
#56 = DIRECTION ( 'NONE',  ( 0.0000000000000000000, 0.0000000000000000000, 1.000000000000000000 ) ) ;
#57 = ORIENTED_EDGE ( 'NONE', *, *, #223, .T. ) ;
#58 = AXIS2_PLACEMENT_3D ( 'NONE', #42, #214, #49 ) ;
#59 = DIRECTION ( 'NONE',  ( 1.000000000000000000, 0.0000000000000000000, 0.0000000000000000000 ) ) ;
#60 = EDGE_LOOP ( 'NONE', ( #362, #80 ) ) ;
#61 = SHAPE_DEFINITION_REPRESENTATION ( #23, #306 ) ;
#62 = FACE_OUTER_BOUND ( 'NONE', #242, .T. ) ;
#63 = APPLICATION_CONTEXT ( 'automotive_design' ) ;
#64 = DIRECTION ( 'NONE',  ( 1.000000000000000000, 0.0000000000000000000, -0.0000000000000000000 ) ) ;
#65 = LINE ( 'NONE', #257, #142 ) ;
#66 = DIRECTION ( 'NONE',  ( 1.000000000000000000, 0.0000000000000000000, 0.0000000000000000000 ) ) ;
#67 = CIRCLE ( 'NONE', #117, 75.00000000000001421 ) ;
#68 = EDGE_CURVE ( 'NONE', #191, #116, #243, .T. ) ;
#69 = FACE_BOUND ( 'NONE', #238, .T. ) ;
#70 = CIRCLE ( 'NONE', #148, 2.749999999999988454 ) ;
#71 = DIRECTION ( 'NONE',  ( 0.0000000000000000000, 0.0000000000000000000, 1.000000000000000000 ) ) ;
#72 = EDGE_CURVE ( 'NONE', #103, #136, #83, .T. ) ;
#73 = AXIS2_PLACEMENT_3D ( 'NONE', #44, #102, #244 ) ;
#74 = CARTESIAN_POINT ( 'NONE',  ( 75.00000000000001421, 0.0000000000000000000, 0.0000000000000000000 ) ) ;
#75 = ORIENTED_EDGE ( 'NONE', *, *, #237, .F. ) ;
#76 = AXIS2_PLACEMENT_3D ( 'NONE', #360, #326, #106 ) ;
#77 = CARTESIAN_POINT ( 'NONE',  ( -58.94874364934724298, -31.86519496451353817, 0.0000000000000000000 ) ) ;
#78 = ORIENTED_EDGE ( 'NONE', *, *, #134, .F. ) ;
#79 = FACE_OUTER_BOUND ( 'NONE', #162, .T. ) ;
#80 = ORIENTED_EDGE ( 'NONE', *, *, #231, .T. ) ;
#81 = ADVANCED_FACE ( 'NONE', ( #140, #32, #141, #255 ), #165, .T. ) ;
#82 = VERTEX_POINT ( 'NONE', #54 ) ;
#83 = CIRCLE ( 'NONE', #286, 2.750000000000002665 ) ;
#84 = CIRCLE ( 'NONE', #235, 2.749999999999988454 ) ;
#85 = CARTESIAN_POINT ( 'NONE',  ( -64.44874364934725008, -31.86519496451353817, -3.000000000000000000 ) ) ;
#86 = ORIENTED_EDGE ( 'NONE', *, *, #233, .F. ) ;
#87 = DIRECTION ( 'NONE',  ( 1.000000000000000000, 0.0000000000000000000, 0.0000000000000000000 ) ) ;
#88 = MECHANICAL_DESIGN_GEOMETRIC_PRESENTATION_REPRESENTATION (  '', ( #28 ), #118 ) ;
#89 = SURFACE_STYLE_USAGE ( .BOTH. , #253 ) ;
#90 = CARTESIAN_POINT ( 'NONE',  ( -38.95751073922566832, -21.54043798271135302, -3.000000000000000000 ) ) ;
#91 = DIRECTION ( 'NONE',  ( 0.0000000000000000000, 0.0000000000000000000, 1.000000000000000000 ) ) ;
#92 = CARTESIAN_POINT ( 'NONE',  ( -2.750000000000000000, 3.367778697655221012E-16, 0.0000000000000000000 ) ) ;
#93 = CIRCLE ( 'NONE', #168, 2.750000000000000000 ) ;
#94 = CARTESIAN_POINT ( 'NONE',  ( -41.70751073922565411, -21.54043798271135302, -3.000000000000000000 ) ) ;
#95 = CARTESIAN_POINT ( 'NONE',  ( 0.0000000000000000000, 0.0000000000000000000, -3.000000000000000000 ) ) ;
#96 = EDGE_CURVE ( 'NONE', #356, #216, #292, .T. ) ;
#97 = DIRECTION ( 'NONE',  ( 0.0000000000000000000, 0.0000000000000000000, 1.000000000000000000 ) ) ;
#98 = AXIS2_PLACEMENT_3D ( 'NONE', #1, #285, #254 ) ;
#99 = LINE ( 'NONE', #206, #359 ) ;
#100 = CARTESIAN_POINT ( 'NONE',  ( -64.44874364934725008, -31.86519496451353817, 0.0000000000000000000 ) ) ;
#101 = ORIENTED_EDGE ( 'NONE', *, *, #337, .F. ) ;
#102 = DIRECTION ( 'NONE',  ( 0.0000000000000000000, 0.0000000000000000000, 1.000000000000000000 ) ) ;
#103 = VERTEX_POINT ( 'NONE', #85 ) ;
#104 = DIRECTION ( 'NONE',  ( 1.000000000000000000, 0.0000000000000000000, 0.0000000000000000000 ) ) ;
#105 = VERTEX_POINT ( 'NONE', #307 ) ;
#106 = DIRECTION ( 'NONE',  ( 1.000000000000000000, 0.0000000000000000000, 0.0000000000000000000 ) ) ;
#107 = EDGE_LOOP ( 'NONE', ( #24, #127, #278, #156 ) ) ;
#108 = ADVANCED_FACE ( 'NONE', ( #232, #69, #261, #40 ), #347, .F. ) ;
#109 = EDGE_LOOP ( 'NONE', ( #78, #210, #18, #183 ) ) ;
#110 = ORIENTED_EDGE ( 'NONE', *, *, #344, .T. ) ;
#111 = AXIS2_PLACEMENT_3D ( 'NONE', #192, #115, #59 ) ;
#112 = PRODUCT_RELATED_PRODUCT_CATEGORY ( 'part', '', ( #248 ) ) ;
#113 = CYLINDRICAL_SURFACE ( 'NONE', #160, 2.750000000000002665 ) ;
#114 = DIRECTION ( 'NONE',  ( 0.0000000000000000000, 0.0000000000000000000, 1.000000000000000000 ) ) ;
#115 = DIRECTION ( 'NONE',  ( 0.0000000000000000000, 0.0000000000000000000, 1.000000000000000000 ) ) ;
#116 = VERTEX_POINT ( 'NONE', #345 ) ;
#117 = AXIS2_PLACEMENT_3D ( 'NONE', #176, #289, #36 ) ;
#118 =( GEOMETRIC_REPRESENTATION_CONTEXT ( 3 ) GLOBAL_UNCERTAINTY_ASSIGNED_CONTEXT ( ( #354 ) ) GLOBAL_UNIT_ASSIGNED_CONTEXT ( ( #135, #334, #277 ) ) REPRESENTATION_CONTEXT ( 'NONE', 'WORKASPACE' ) );
#119 = EDGE_LOOP ( 'NONE', ( #137, #195 ) ) ;
#120 = DIRECTION ( 'NONE',  ( 1.000000000000000000, 0.0000000000000000000, 0.0000000000000000000 ) ) ;
#121 = VECTOR ( 'NONE', #139, 1000.000000000000000 ) ;
#122 = FACE_OUTER_BOUND ( 'NONE', #208, .T. ) ;
#123 =( NAMED_UNIT ( * ) PLANE_ANGLE_UNIT ( ) SI_UNIT ( $, .RADIAN. ) );
#124 = CLOSED_SHELL ( 'NONE', ( #205, #316, #246, #143, #25, #108, #81, #158, #5, #41 ) ) ;
#125 = PRODUCT_DEFINITION_FORMATION_WITH_SPECIFIED_SOURCE ( 'ANY', '', #248, .NOT_KNOWN. ) ;
#126 = CARTESIAN_POINT ( 'NONE',  ( 2.750000000000000000, 0.0000000000000000000, -3.000000000000000000 ) ) ;
#127 = ORIENTED_EDGE ( 'NONE', *, *, #96, .F. ) ;
#128 = CARTESIAN_POINT ( 'NONE',  ( -41.70751073922565411, -21.54043798271135302, -3.000000000000000000 ) ) ;
#129 =( LENGTH_UNIT ( ) NAMED_UNIT ( * ) SI_UNIT ( .MILLI., .METRE. ) );
#130 = ORIENTED_EDGE ( 'NONE', *, *, #284, .F. ) ;
#131 = AXIS2_PLACEMENT_3D ( 'NONE', #7, #226, #305 ) ;
#132 = DIRECTION ( 'NONE',  ( 0.0000000000000000000, 0.0000000000000000000, 1.000000000000000000 ) ) ;
#133 = EDGE_LOOP ( 'NONE', ( #75, #130 ) ) ;
#134 = EDGE_CURVE ( 'NONE', #343, #105, #175, .T. ) ;
#135 =( LENGTH_UNIT ( ) NAMED_UNIT ( * ) SI_UNIT ( .MILLI., .METRE. ) );
#136 = VERTEX_POINT ( 'NONE', #11 ) ;
#137 = ORIENTED_EDGE ( 'NONE', *, *, #46, .F. ) ;
#138 = FACE_OUTER_BOUND ( 'NONE', #109, .T. ) ;
#139 = DIRECTION ( 'NONE',  ( 0.0000000000000000000, 0.0000000000000000000, 1.000000000000000000 ) ) ;
#140 = FACE_BOUND ( 'NONE', #215, .T. ) ;
#141 = FACE_BOUND ( 'NONE', #119, .T. ) ;
#142 = VECTOR ( 'NONE', #228, 1000.000000000000000 ) ;
#143 = ADVANCED_FACE ( 'NONE', ( #258 ), #35, .T. ) ;
#144 = MANIFOLD_SOLID_BREP ( 'Tôle de base pliée1', #124 ) ;
#145 = PRESENTATION_STYLE_ASSIGNMENT (( #203 ) ) ;
#146 = DIRECTION ( 'NONE',  ( 0.0000000000000000000, 0.0000000000000000000, 1.000000000000000000 ) ) ;
#147 = AXIS2_PLACEMENT_3D ( 'NONE', #95, #146, #66 ) ;
#148 = AXIS2_PLACEMENT_3D ( 'NONE', #128, #239, #184 ) ;
#149 = DIRECTION ( 'NONE',  ( 0.0000000000000000000, 0.0000000000000000000, 1.000000000000000000 ) ) ;
#150 = CARTESIAN_POINT ( 'NONE',  ( 0.0000000000000000000, 0.0000000000000000000, 0.0000000000000000000 ) ) ;
#151 = ORIENTED_EDGE ( 'NONE', *, *, #196, .T. ) ;
#152 = PRODUCT_DEFINITION_CONTEXT ( 'detailed design', #287, 'design' ) ;
#153 = DIRECTION ( 'NONE',  ( 0.0000000000000000000, 0.0000000000000000000, 1.000000000000000000 ) ) ;
#154 = ORIENTED_EDGE ( 'NONE', *, *, #342, .T. ) ;
#155 = DIRECTION ( 'NONE',  ( 1.000000000000000000, 0.0000000000000000000, 0.0000000000000000000 ) ) ;
#156 = ORIENTED_EDGE ( 'NONE', *, *, #46, .T. ) ;
#157 = UNCERTAINTY_MEASURE_WITH_UNIT (LENGTH_MEASURE( 1.000000000000000082E-05 ), #129, 'distance_accuracy_value', 'NONE');
#158 = ADVANCED_FACE ( 'NONE', ( #256 ), #38, .F. ) ;
#159 = DIRECTION ( 'NONE',  ( 0.0000000000000000000, 0.0000000000000000000, 1.000000000000000000 ) ) ;
#160 = AXIS2_PLACEMENT_3D ( 'NONE', #249, #114, #87 ) ;
#161 = DIRECTION ( 'NONE',  ( 1.000000000000000000, 0.0000000000000000000, 0.0000000000000000000 ) ) ;
#162 = EDGE_LOOP ( 'NONE', ( #300, #186, #263, #86 ) ) ;
#163 = DIRECTION ( 'NONE',  ( 1.000000000000000000, 0.0000000000000000000, 0.0000000000000000000 ) ) ;
#164 = APPLICATION_PROTOCOL_DEFINITION ( 'draft international standard', 'automotive_design', 1998, #287 ) ;
#165 = PLANE ( 'NONE',  #131 ) ;
#166 = CIRCLE ( 'NONE', #33, 75.00000000000001421 ) ;
#167 = CARTESIAN_POINT ( 'NONE',  ( -41.70751073922565411, -21.54043798271135302, -3.000000000000000000 ) ) ;
#168 = AXIS2_PLACEMENT_3D ( 'NONE', #150, #267, #104 ) ;
#169 = FILL_AREA_STYLE ('',( #282 ) ) ;
#170 = EDGE_LOOP ( 'NONE', ( #57, #151, #333, #4 ) ) ;
#171 = EDGE_CURVE ( 'NONE', #15, #105, #178, .T. ) ;
#172 = CARTESIAN_POINT ( 'NONE',  ( 0.0000000000000000000, 0.0000000000000000000, 0.0000000000000000000 ) ) ;
#173 =( NAMED_UNIT ( * ) SI_UNIT ( $, .STERADIAN. ) SOLID_ANGLE_UNIT ( ) );
#174 = STYLED_ITEM ( 'NONE', ( #145 ), #144 ) ;
#175 = LINE ( 'NONE', #321, #229 ) ;
#176 = CARTESIAN_POINT ( 'NONE',  ( 0.0000000000000000000, 0.0000000000000000000, -3.000000000000000000 ) ) ;
#177 = DIRECTION ( 'NONE',  ( 1.000000000000000000, 0.0000000000000000000, 0.0000000000000000000 ) ) ;
#178 = CIRCLE ( 'NONE', #217, 2.749999999999988454 ) ;
#179 = PRESENTATION_LAYER_ASSIGNMENT (  '', '', ( #28 ) ) ;
#180 = CARTESIAN_POINT ( 'NONE',  ( 0.0000000000000000000, 0.0000000000000000000, -3.000000000000000000 ) ) ;
#181 = VERTEX_POINT ( 'NONE', #346 ) ;
#182 = CYLINDRICAL_SURFACE ( 'NONE', #73, 2.750000000000000000 ) ;
#183 = ORIENTED_EDGE ( 'NONE', *, *, #171, .T. ) ;
#184 = DIRECTION ( 'NONE',  ( 1.000000000000000000, 0.0000000000000000000, 0.0000000000000000000 ) ) ;
#185 = ORIENTED_EDGE ( 'NONE', *, *, #275, .F. ) ;
#186 = ORIENTED_EDGE ( 'NONE', *, *, #260, .T. ) ;
#187 = CARTESIAN_POINT ( 'NONE',  ( -61.69874364934724298, -31.86519496451353817, -3.000000000000000000 ) ) ;
#188 = VERTEX_POINT ( 'NONE', #92 ) ;
#189 = AXIS2_PLACEMENT_3D ( 'NONE', #167, #56, #309 ) ;
#190 = ORIENTED_EDGE ( 'NONE', *, *, #55, .T. ) ;
#191 = VERTEX_POINT ( 'NONE', #199 ) ;
#192 = CARTESIAN_POINT ( 'NONE',  ( 0.0000000000000000000, 0.0000000000000000000, 0.0000000000000000000 ) ) ;
#193 = LINE ( 'NONE', #90, #121 ) ;
#194 = CIRCLE ( 'NONE', #147, 2.750000000000000000 ) ;
#195 = ORIENTED_EDGE ( 'NONE', *, *, #301, .F. ) ;
#196 = EDGE_CURVE ( 'NONE', #191, #327, #65, .T. ) ;
#197 = CARTESIAN_POINT ( 'NONE',  ( 0.0000000000000000000, 0.0000000000000000000, -3.000000000000000000 ) ) ;
#198 = SURFACE_STYLE_FILL_AREA ( #294 ) ;
#199 = CARTESIAN_POINT ( 'NONE',  ( -75.00000000000001421, 9.184850993605150311E-15, -3.000000000000000000 ) ) ;
#200 = AXIS2_PLACEMENT_3D ( 'NONE', #265, #302, #155 ) ;
#201 = DIRECTION ( 'NONE',  ( 0.0000000000000000000, 0.0000000000000000000, 1.000000000000000000 ) ) ;
#202 = DIRECTION ( 'NONE',  ( 1.000000000000000000, 0.0000000000000000000, 0.0000000000000000000 ) ) ;
#203 = SURFACE_STYLE_USAGE ( .BOTH. , #315 ) ;
#204 = AXIS2_PLACEMENT_3D ( 'NONE', #241, #159, #161 ) ;
#205 = ADVANCED_FACE ( 'NONE', ( #122 ), #230, .F. ) ;
#206 = CARTESIAN_POINT ( 'NONE',  ( -64.44874364934725008, -31.86519496451353817, -3.000000000000000000 ) ) ;
#207 = DIRECTION ( 'NONE',  ( 1.000000000000000000, 0.0000000000000000000, 0.0000000000000000000 ) ) ;
#208 = EDGE_LOOP ( 'NONE', ( #101, #353, #268, #27 ) ) ;
#209 = CARTESIAN_POINT ( 'NONE',  ( -58.94874364934724298, -31.86519496451353817, -3.000000000000000000 ) ) ;
#210 = ORIENTED_EDGE ( 'NONE', *, *, #344, .F. ) ;
#211 = CIRCLE ( 'NONE', #21, 2.750000000000000000 ) ;
#212 = DIRECTION ( 'NONE',  ( 1.000000000000000000, 0.0000000000000000000, 0.0000000000000000000 ) ) ;
#213 = ORIENTED_EDGE ( 'NONE', *, *, #171, .F. ) ;
#214 = DIRECTION ( 'NONE',  ( 0.0000000000000000000, 0.0000000000000000000, 1.000000000000000000 ) ) ;
#215 = EDGE_LOOP ( 'NONE', ( #213, #361 ) ) ;
#216 = VERTEX_POINT ( 'NONE', #319 ) ;
#217 = AXIS2_PLACEMENT_3D ( 'NONE', #9, #149, #177 ) ;
#218 = DIRECTION ( 'NONE',  ( 0.0000000000000000000, 0.0000000000000000000, 1.000000000000000000 ) ) ;
#219 = UNCERTAINTY_MEASURE_WITH_UNIT (LENGTH_MEASURE( 1.000000000000000082E-05 ), #12, 'distance_accuracy_value', 'NONE');
#220 = PRESENTATION_STYLE_ASSIGNMENT (( #89 ) ) ;
#221 = FACE_OUTER_BOUND ( 'NONE', #50, .T. ) ;
#222 = DIRECTION ( 'NONE',  ( 1.000000000000000000, 0.0000000000000000000, 0.0000000000000000000 ) ) ;
#223 = EDGE_CURVE ( 'NONE', #116, #191, #67, .T. ) ;
#224 = DIRECTION ( 'NONE',  ( 1.000000000000000000, 0.0000000000000000000, 0.0000000000000000000 ) ) ;
#225 = CIRCLE ( 'NONE', #272, 2.750000000000002665 ) ;
#226 = DIRECTION ( 'NONE',  ( 0.0000000000000000000, 0.0000000000000000000, 1.000000000000000000 ) ) ;
#227 = CARTESIAN_POINT ( 'NONE',  ( 0.0000000000000000000, 0.0000000000000000000, -3.000000000000000000 ) ) ;
#228 = DIRECTION ( 'NONE',  ( 0.0000000000000000000, 0.0000000000000000000, 1.000000000000000000 ) ) ;
#229 = VECTOR ( 'NONE', #97, 1000.000000000000000 ) ;
#230 = CYLINDRICAL_SURFACE ( 'NONE', #264, 2.749999999999988454 ) ;
#231 = EDGE_CURVE ( 'NONE', #216, #356, #194, .T. ) ;
#232 = FACE_BOUND ( 'NONE', #20, .T. ) ;
#233 = EDGE_CURVE ( 'NONE', #356, #82, #348, .T. ) ;
#234 = DIRECTION ( 'NONE',  ( 0.0000000000000000000, 0.0000000000000000000, 1.000000000000000000 ) ) ;
#235 = AXIS2_PLACEMENT_3D ( 'NONE', #324, #153, #262 ) ;
#236 =( NAMED_UNIT ( * ) PLANE_ANGLE_UNIT ( ) SI_UNIT ( $, .RADIAN. ) );
#237 = EDGE_CURVE ( 'NONE', #266, #247, #37, .T. ) ;
#238 = EDGE_LOOP ( 'NONE', ( #154, #295 ) ) ;
#239 = DIRECTION ( 'NONE',  ( 0.0000000000000000000, 0.0000000000000000000, 1.000000000000000000 ) ) ;
#240 = ORIENTED_EDGE ( 'NONE', *, *, #237, .T. ) ;
#241 = CARTESIAN_POINT ( 'NONE',  ( -61.69874364934724298, -31.86519496451353817, 0.0000000000000000000 ) ) ;
#242 = EDGE_LOOP ( 'NONE', ( #45, #43, #251, #274 ) ) ;
#243 = CIRCLE ( 'NONE', #98, 75.00000000000001421 ) ;
#244 = DIRECTION ( 'NONE',  ( 1.000000000000000000, 0.0000000000000000000, 0.0000000000000000000 ) ) ;
#245 = ORIENTED_EDGE ( 'NONE', *, *, #358, .T. ) ;
#246 = ADVANCED_FACE ( 'NONE', ( #79 ), #182, .F. ) ;
#247 = VERTEX_POINT ( 'NONE', #100 ) ;
#248 = PRODUCT ( 'repose pied enfant', 'repose pied enfant', '', ( #313 ) ) ;
#249 = CARTESIAN_POINT ( 'NONE',  ( -61.69874364934724298, -31.86519496451353817, -3.000000000000000000 ) ) ;
#250 = CIRCLE ( 'NONE', #58, 75.00000000000001421 ) ;
#251 = ORIENTED_EDGE ( 'NONE', *, *, #331, .T. ) ;
#252 = DIRECTION ( 'NONE',  ( 0.0000000000000000000, 0.0000000000000000000, 1.000000000000000000 ) ) ;
#253 = SURFACE_SIDE_STYLE ('',( #339 ) ) ;
#254 = DIRECTION ( 'NONE',  ( 1.000000000000000000, 0.0000000000000000000, 0.0000000000000000000 ) ) ;
#255 = FACE_OUTER_BOUND ( 'NONE', #330, .T. ) ;
#256 = FACE_OUTER_BOUND ( 'NONE', #107, .T. ) ;
#257 = CARTESIAN_POINT ( 'NONE',  ( -75.00000000000001421, 9.184850993605150311E-15, -3.000000000000000000 ) ) ;
#258 = FACE_OUTER_BOUND ( 'NONE', #170, .T. ) ;
#259 = MECHANICAL_DESIGN_GEOMETRIC_PRESENTATION_REPRESENTATION (  '', ( #174 ), #310 ) ;
#260 = EDGE_CURVE ( 'NONE', #216, #188, #355, .T. ) ;
#261 = FACE_BOUND ( 'NONE', #60, .T. ) ;
#262 = DIRECTION ( 'NONE',  ( 1.000000000000000000, 0.0000000000000000000, 0.0000000000000000000 ) ) ;
#263 = ORIENTED_EDGE ( 'NONE', *, *, #301, .T. ) ;
#264 = AXIS2_PLACEMENT_3D ( 'NONE', #94, #201, #202 ) ;
#265 = CARTESIAN_POINT ( 'NONE',  ( -41.70751073922565411, -21.54043798271135302, 0.0000000000000000000 ) ) ;
#266 = VERTEX_POINT ( 'NONE', #77 ) ;
#267 = DIRECTION ( 'NONE',  ( 0.0000000000000000000, 0.0000000000000000000, 1.000000000000000000 ) ) ;
#268 = ORIENTED_EDGE ( 'NONE', *, *, #322, .T. ) ;
#269 = DIRECTION ( 'NONE',  ( 0.0000000000000000000, 0.0000000000000000000, 1.000000000000000000 ) ) ;
#270 = ORIENTED_EDGE ( 'NONE', *, *, #275, .T. ) ;
#271 = PRESENTATION_LAYER_ASSIGNMENT (  '', '', ( #174 ) ) ;
#272 = AXIS2_PLACEMENT_3D ( 'NONE', #352, #349, #212 ) ;
#273 = LINE ( 'NONE', #22, #293 ) ;
#274 = ORIENTED_EDGE ( 'NONE', *, *, #55, .F. ) ;
#275 = EDGE_CURVE ( 'NONE', #136, #266, #47, .T. ) ;
#276 = CYLINDRICAL_SURFACE ( 'NONE', #304, 75.00000000000001421 ) ;
#277 =( NAMED_UNIT ( * ) SI_UNIT ( $, .STERADIAN. ) SOLID_ANGLE_UNIT ( ) );
#278 = ORIENTED_EDGE ( 'NONE', *, *, #233, .T. ) ;
#279 = COLOUR_RGB ( '',0.8980392156862745390, 0.9176470588235293713, 0.9294117647058823817 ) ;
#280 = CIRCLE ( 'NONE', #200, 2.749999999999988454 ) ;
#281 = CARTESIAN_POINT ( 'NONE',  ( 0.0000000000000000000, 0.0000000000000000000, 0.0000000000000000000 ) ) ;
#282 = FILL_AREA_STYLE_COLOUR ( '', #318 ) ;
#283 = CARTESIAN_POINT ( 'NONE',  ( -61.69874364934724298, -31.86519496451353817, -3.000000000000000000 ) ) ;
#284 = EDGE_CURVE ( 'NONE', #247, #266, #39, .T. ) ;
#285 = DIRECTION ( 'NONE',  ( 0.0000000000000000000, 0.0000000000000000000, 1.000000000000000000 ) ) ;
#286 = AXIS2_PLACEMENT_3D ( 'NONE', #283, #341, #224 ) ;
#287 = APPLICATION_CONTEXT ( 'automotive_design' ) ;
#288 = FILL_AREA_STYLE_COLOUR ( '', #279 ) ;
#289 = DIRECTION ( 'NONE',  ( 0.0000000000000000000, 0.0000000000000000000, 1.000000000000000000 ) ) ;
#290 = EDGE_CURVE ( 'NONE', #297, #327, #250, .T. ) ;
#291 = DIRECTION ( 'NONE',  ( 0.0000000000000000000, 0.0000000000000000000, 1.000000000000000000 ) ) ;
#292 = CIRCLE ( 'NONE', #350, 2.750000000000000000 ) ;
#293 = VECTOR ( 'NONE', #234, 1000.000000000000000 ) ;
#294 = FILL_AREA_STYLE ('',( #288 ) ) ;
#295 = ORIENTED_EDGE ( 'NONE', *, *, #72, .T. ) ;
#296 = DIRECTION ( 'NONE',  ( 0.0000000000000000000, 0.0000000000000000000, 1.000000000000000000 ) ) ;
#297 = VERTEX_POINT ( 'NONE', #74 ) ;
#298 = ORIENTED_EDGE ( 'NONE', *, *, #284, .T. ) ;
#299 =( NAMED_UNIT ( * ) SI_UNIT ( $, .STERADIAN. ) SOLID_ANGLE_UNIT ( ) );
#300 = ORIENTED_EDGE ( 'NONE', *, *, #231, .F. ) ;
#301 = EDGE_CURVE ( 'NONE', #188, #82, #93, .T. ) ;
#302 = DIRECTION ( 'NONE',  ( 0.0000000000000000000, 0.0000000000000000000, 1.000000000000000000 ) ) ;
#303 = ORIENTED_EDGE ( 'NONE', *, *, #223, .F. ) ;
#304 = AXIS2_PLACEMENT_3D ( 'NONE', #197, #340, #163 ) ;
#305 = DIRECTION ( 'NONE',  ( 1.000000000000000000, 0.0000000000000000000, -0.0000000000000000000 ) ) ;
#306 = ADVANCED_BREP_SHAPE_REPRESENTATION ( 'repose pied enfant', ( #144, #111 ), #311 ) ;
#307 = CARTESIAN_POINT ( 'NONE',  ( -44.45751073922564700, -21.54043798271135302, 0.0000000000000000000 ) ) ;
#308 = APPLICATION_PROTOCOL_DEFINITION ( 'draft international standard', 'automotive_design', 1998, #63 ) ;
#309 = DIRECTION ( 'NONE',  ( 1.000000000000000000, 0.0000000000000000000, 0.0000000000000000000 ) ) ;
#310 =( GEOMETRIC_REPRESENTATION_CONTEXT ( 3 ) GLOBAL_UNCERTAINTY_ASSIGNED_CONTEXT ( ( #219 ) ) GLOBAL_UNIT_ASSIGNED_CONTEXT ( ( #12, #123, #173 ) ) REPRESENTATION_CONTEXT ( 'NONE', 'WORKASPACE' ) );
#311 =( GEOMETRIC_REPRESENTATION_CONTEXT ( 3 ) GLOBAL_UNCERTAINTY_ASSIGNED_CONTEXT ( ( #157 ) ) GLOBAL_UNIT_ASSIGNED_CONTEXT ( ( #129, #236, #299 ) ) REPRESENTATION_CONTEXT ( 'NONE', 'WORKASPACE' ) );
#312 = DIRECTION ( 'NONE',  ( 0.0000000000000000000, 0.0000000000000000000, 1.000000000000000000 ) ) ;
#313 = PRODUCT_CONTEXT ( 'NONE', #63, 'mechanical' ) ;
#314 = CYLINDRICAL_SURFACE ( 'NONE', #189, 2.749999999999988454 ) ;
#315 = SURFACE_SIDE_STYLE ('',( #198 ) ) ;
#316 = ADVANCED_FACE ( 'NONE', ( #332 ), #13, .F. ) ;
#317 = DIRECTION ( 'NONE',  ( 1.000000000000000000, 0.0000000000000000000, 0.0000000000000000000 ) ) ;
#318 = COLOUR_RGB ( '',0.8980392156862745390, 0.9176470588235293713, 0.9294117647058823817 ) ;
#319 = CARTESIAN_POINT ( 'NONE',  ( -2.750000000000000000, 3.367778697655221012E-16, -3.000000000000000000 ) ) ;
#320 = CARTESIAN_POINT ( 'NONE',  ( 2.750000000000000000, 0.0000000000000000000, -3.000000000000000000 ) ) ;
#321 = CARTESIAN_POINT ( 'NONE',  ( -44.45751073922564700, -21.54043798271135302, -3.000000000000000000 ) ) ;
#322 = EDGE_CURVE ( 'NONE', #105, #15, #280, .T. ) ;
#323 = CARTESIAN_POINT ( 'NONE',  ( -2.750000000000000000, 3.367778697655221012E-16, -3.000000000000000000 ) ) ;
#324 = CARTESIAN_POINT ( 'NONE',  ( -41.70751073922565411, -21.54043798271135302, -3.000000000000000000 ) ) ;
#325 = ORIENTED_EDGE ( 'NONE', *, *, #72, .F. ) ;
#326 = DIRECTION ( 'NONE',  ( 0.0000000000000000000, 0.0000000000000000000, 1.000000000000000000 ) ) ;
#327 = VERTEX_POINT ( 'NONE', #52 ) ;
#328 = VECTOR ( 'NONE', #132, 1000.000000000000000 ) ;
#329 = AXIS2_PLACEMENT_3D ( 'NONE', #187, #269, #207 ) ;
#330 = EDGE_LOOP ( 'NONE', ( #48, #190 ) ) ;
#331 = EDGE_CURVE ( 'NONE', #116, #297, #273, .T. ) ;
#332 = FACE_OUTER_BOUND ( 'NONE', #31, .T. ) ;
#333 = ORIENTED_EDGE ( 'NONE', *, *, #290, .F. ) ;
#334 =( NAMED_UNIT ( * ) PLANE_ANGLE_UNIT ( ) SI_UNIT ( $, .RADIAN. ) );
#335 = ORIENTED_EDGE ( 'NONE', *, *, #68, .F. ) ;
#336 = AXIS2_PLACEMENT_3D ( 'NONE', #180, #291, #64 ) ;
#337 = EDGE_CURVE ( 'NONE', #343, #181, #84, .T. ) ;
#338 = DIRECTION ( 'NONE',  ( 1.000000000000000000, 0.0000000000000000000, 0.0000000000000000000 ) ) ;
#339 = SURFACE_STYLE_FILL_AREA ( #169 ) ;
#340 = DIRECTION ( 'NONE',  ( 0.0000000000000000000, 0.0000000000000000000, 1.000000000000000000 ) ) ;
#341 = DIRECTION ( 'NONE',  ( 0.0000000000000000000, 0.0000000000000000000, 1.000000000000000000 ) ) ;
#342 = EDGE_CURVE ( 'NONE', #136, #103, #225, .T. ) ;
#343 = VERTEX_POINT ( 'NONE', #16 ) ;
#344 = EDGE_CURVE ( 'NONE', #181, #343, #70, .T. ) ;
#345 = CARTESIAN_POINT ( 'NONE',  ( 75.00000000000001421, 0.0000000000000000000, -3.000000000000000000 ) ) ;
#346 = CARTESIAN_POINT ( 'NONE',  ( -38.95751073922566832, -21.54043798271135302, -3.000000000000000000 ) ) ;
#347 = PLANE ( 'NONE',  #336 ) ;
#348 = LINE ( 'NONE', #320, #357 ) ;
#349 = DIRECTION ( 'NONE',  ( 0.0000000000000000000, 0.0000000000000000000, 1.000000000000000000 ) ) ;
#350 = AXIS2_PLACEMENT_3D ( 'NONE', #26, #218, #338 ) ;
#351 = ORIENTED_EDGE ( 'NONE', *, *, #342, .F. ) ;
#352 = CARTESIAN_POINT ( 'NONE',  ( -61.69874364934724298, -31.86519496451353817, -3.000000000000000000 ) ) ;
#353 = ORIENTED_EDGE ( 'NONE', *, *, #134, .T. ) ;
#354 = UNCERTAINTY_MEASURE_WITH_UNIT (LENGTH_MEASURE( 1.000000000000000082E-05 ), #135, 'distance_accuracy_value', 'NONE');
#355 = LINE ( 'NONE', #323, #328 ) ;
#356 = VERTEX_POINT ( 'NONE', #126 ) ;
#357 = VECTOR ( 'NONE', #296, 1000.000000000000000 ) ;
#358 = EDGE_CURVE ( 'NONE', #103, #247, #99, .T. ) ;
#359 = VECTOR ( 'NONE', #71, 1000.000000000000000 ) ;
#360 = CARTESIAN_POINT ( 'NONE',  ( -61.69874364934724298, -31.86519496451353817, 0.0000000000000000000 ) ) ;
#361 = ORIENTED_EDGE ( 'NONE', *, *, #322, .F. ) ;
#362 = ORIENTED_EDGE ( 'NONE', *, *, #96, .T. ) ;
ENDSEC;
END-ISO-10303-21;
