ISO-10303-21;
HEADER;
/* Generated by software containing ST-Developer
 * from STEP Tools, Inc. (www.steptools.com) 
 */

FILE_DESCRIPTION(
/* description */ (''),
/* implementation_level */ '2;1');

FILE_NAME(
/* name */ '/Users/robinbrossard/Downloads/RB - 1.step',
/* time_stamp */ '2020-06-15T21:19:19+02:00',
/* author */ (''),
/* organization */ (''),
/* preprocessor_version */ 'ST-DEVELOPER v18.1',
/* originating_system */ 'Autodesk Translation Framework v9.3.0.1241',
/* authorisation */ '');

FILE_SCHEMA (('AUTOMOTIVE_DESIGN { 1 0 10303 214 3 1 1 }'));
ENDSEC;

DATA;
#10=MECHANICAL_DESIGN_GEOMETRIC_PRESENTATION_REPRESENTATION('',(#13),#271);
#11=SHAPE_REPRESENTATION_RELATIONSHIP('SRR','None',#278,#12);
#12=ADVANCED_BREP_SHAPE_REPRESENTATION('',(#14),#270);
#13=STYLED_ITEM('',(#287),#14);
#14=MANIFOLD_SOLID_BREP('Corps1',#151);
#15=FACE_BOUND('',#40,.T.);
#16=FACE_BOUND('',#41,.T.);
#17=FACE_BOUND('',#43,.T.);
#18=PLANE('',#168);
#19=PLANE('',#172);
#20=PLANE('',#176);
#21=PLANE('',#180);
#22=PLANE('',#181);
#23=FACE_OUTER_BOUND('',#32,.T.);
#24=FACE_OUTER_BOUND('',#33,.T.);
#25=FACE_OUTER_BOUND('',#34,.T.);
#26=FACE_OUTER_BOUND('',#35,.T.);
#27=FACE_OUTER_BOUND('',#36,.T.);
#28=FACE_OUTER_BOUND('',#37,.T.);
#29=FACE_OUTER_BOUND('',#38,.T.);
#30=FACE_OUTER_BOUND('',#39,.T.);
#31=FACE_OUTER_BOUND('',#42,.T.);
#32=EDGE_LOOP('',(#102,#103,#104,#105));
#33=EDGE_LOOP('',(#106));
#34=EDGE_LOOP('',(#107,#108,#109,#110));
#35=EDGE_LOOP('',(#111,#112,#113,#114));
#36=EDGE_LOOP('',(#115,#116,#117,#118));
#37=EDGE_LOOP('',(#119,#120,#121,#122));
#38=EDGE_LOOP('',(#123,#124,#125,#126));
#39=EDGE_LOOP('',(#127,#128,#129,#130));
#40=EDGE_LOOP('',(#131));
#41=EDGE_LOOP('',(#132));
#42=EDGE_LOOP('',(#133,#134,#135,#136));
#43=EDGE_LOOP('',(#137));
#44=LINE('',#233,#54);
#45=LINE('',#240,#55);
#46=LINE('',#245,#56);
#47=LINE('',#247,#57);
#48=LINE('',#249,#58);
#49=LINE('',#250,#59);
#50=LINE('',#256,#60);
#51=LINE('',#259,#61);
#52=LINE('',#261,#62);
#53=LINE('',#262,#63);
#54=VECTOR('',#188,10.);
#55=VECTOR('',#197,14.);
#56=VECTOR('',#202,10.);
#57=VECTOR('',#203,10.);
#58=VECTOR('',#204,10.);
#59=VECTOR('',#205,10.);
#60=VECTOR('',#212,10.);
#61=VECTOR('',#215,10.);
#62=VECTOR('',#216,10.);
#63=VECTOR('',#217,10.);
#64=CIRCLE('',#166,10.);
#65=CIRCLE('',#167,10.);
#66=CIRCLE('',#170,14.);
#67=CIRCLE('',#171,14.);
#68=CIRCLE('',#174,19.5);
#69=CIRCLE('',#175,19.5);
#70=CIRCLE('',#178,19.5);
#71=CIRCLE('',#179,19.5);
#72=VERTEX_POINT('',#230);
#73=VERTEX_POINT('',#232);
#74=VERTEX_POINT('',#237);
#75=VERTEX_POINT('',#239);
#76=VERTEX_POINT('',#243);
#77=VERTEX_POINT('',#244);
#78=VERTEX_POINT('',#246);
#79=VERTEX_POINT('',#248);
#80=VERTEX_POINT('',#252);
#81=VERTEX_POINT('',#254);
#82=VERTEX_POINT('',#258);
#83=VERTEX_POINT('',#260);
#84=EDGE_CURVE('',#72,#72,#64,.T.);
#85=EDGE_CURVE('',#72,#73,#44,.T.);
#86=EDGE_CURVE('',#73,#73,#65,.T.);
#87=EDGE_CURVE('',#74,#74,#66,.T.);
#88=EDGE_CURVE('',#74,#75,#45,.T.);
#89=EDGE_CURVE('',#75,#75,#67,.T.);
#90=EDGE_CURVE('',#76,#77,#46,.T.);
#91=EDGE_CURVE('',#76,#78,#47,.T.);
#92=EDGE_CURVE('',#79,#78,#48,.T.);
#93=EDGE_CURVE('',#77,#79,#49,.T.);
#94=EDGE_CURVE('',#80,#77,#68,.T.);
#95=EDGE_CURVE('',#81,#79,#69,.T.);
#96=EDGE_CURVE('',#80,#81,#50,.T.);
#97=EDGE_CURVE('',#80,#82,#51,.T.);
#98=EDGE_CURVE('',#83,#81,#52,.T.);
#99=EDGE_CURVE('',#82,#83,#53,.T.);
#100=EDGE_CURVE('',#76,#82,#70,.T.);
#101=EDGE_CURVE('',#78,#83,#71,.T.);
#102=ORIENTED_EDGE('',*,*,#84,.F.);
#103=ORIENTED_EDGE('',*,*,#85,.T.);
#104=ORIENTED_EDGE('',*,*,#86,.T.);
#105=ORIENTED_EDGE('',*,*,#85,.F.);
#106=ORIENTED_EDGE('',*,*,#86,.F.);
#107=ORIENTED_EDGE('',*,*,#87,.F.);
#108=ORIENTED_EDGE('',*,*,#88,.T.);
#109=ORIENTED_EDGE('',*,*,#89,.T.);
#110=ORIENTED_EDGE('',*,*,#88,.F.);
#111=ORIENTED_EDGE('',*,*,#90,.F.);
#112=ORIENTED_EDGE('',*,*,#91,.T.);
#113=ORIENTED_EDGE('',*,*,#92,.F.);
#114=ORIENTED_EDGE('',*,*,#93,.F.);
#115=ORIENTED_EDGE('',*,*,#94,.T.);
#116=ORIENTED_EDGE('',*,*,#93,.T.);
#117=ORIENTED_EDGE('',*,*,#95,.F.);
#118=ORIENTED_EDGE('',*,*,#96,.F.);
#119=ORIENTED_EDGE('',*,*,#97,.F.);
#120=ORIENTED_EDGE('',*,*,#96,.T.);
#121=ORIENTED_EDGE('',*,*,#98,.F.);
#122=ORIENTED_EDGE('',*,*,#99,.F.);
#123=ORIENTED_EDGE('',*,*,#100,.T.);
#124=ORIENTED_EDGE('',*,*,#99,.T.);
#125=ORIENTED_EDGE('',*,*,#101,.F.);
#126=ORIENTED_EDGE('',*,*,#91,.F.);
#127=ORIENTED_EDGE('',*,*,#101,.T.);
#128=ORIENTED_EDGE('',*,*,#98,.T.);
#129=ORIENTED_EDGE('',*,*,#95,.T.);
#130=ORIENTED_EDGE('',*,*,#92,.T.);
#131=ORIENTED_EDGE('',*,*,#84,.T.);
#132=ORIENTED_EDGE('',*,*,#87,.T.);
#133=ORIENTED_EDGE('',*,*,#100,.F.);
#134=ORIENTED_EDGE('',*,*,#90,.T.);
#135=ORIENTED_EDGE('',*,*,#94,.F.);
#136=ORIENTED_EDGE('',*,*,#97,.T.);
#137=ORIENTED_EDGE('',*,*,#89,.F.);
#138=CYLINDRICAL_SURFACE('',#165,10.);
#139=CYLINDRICAL_SURFACE('',#169,14.);
#140=CYLINDRICAL_SURFACE('',#173,19.5);
#141=CYLINDRICAL_SURFACE('',#177,19.5);
#142=ADVANCED_FACE('',(#23),#138,.F.);
#143=ADVANCED_FACE('',(#24),#18,.T.);
#144=ADVANCED_FACE('',(#25),#139,.F.);
#145=ADVANCED_FACE('',(#26),#19,.T.);
#146=ADVANCED_FACE('',(#27),#140,.T.);
#147=ADVANCED_FACE('',(#28),#20,.T.);
#148=ADVANCED_FACE('',(#29),#141,.T.);
#149=ADVANCED_FACE('',(#30,#15,#16),#21,.T.);
#150=ADVANCED_FACE('',(#31,#17),#22,.F.);
#151=CLOSED_SHELL('',(#142,#143,#144,#145,#146,#147,#148,#149,#150));
#152=DERIVED_UNIT_ELEMENT(#154,1.);
#153=DERIVED_UNIT_ELEMENT(#273,3.);
#154=(
MASS_UNIT()
NAMED_UNIT(*)
SI_UNIT(.KILO.,.GRAM.)
);
#155=DERIVED_UNIT((#152,#153));
#156=MEASURE_REPRESENTATION_ITEM('density measure',
POSITIVE_RATIO_MEASURE(7850.),#155);
#157=PROPERTY_DEFINITION_REPRESENTATION(#162,#159);
#158=PROPERTY_DEFINITION_REPRESENTATION(#163,#160);
#159=REPRESENTATION('material name',(#161),#270);
#160=REPRESENTATION('density',(#156),#270);
#161=DESCRIPTIVE_REPRESENTATION_ITEM('Acier','Acier');
#162=PROPERTY_DEFINITION('material property','material name',#280);
#163=PROPERTY_DEFINITION('material property','density of part',#280);
#164=AXIS2_PLACEMENT_3D('placement',#228,#182,#183);
#165=AXIS2_PLACEMENT_3D('',#229,#184,#185);
#166=AXIS2_PLACEMENT_3D('',#231,#186,#187);
#167=AXIS2_PLACEMENT_3D('',#234,#189,#190);
#168=AXIS2_PLACEMENT_3D('',#235,#191,#192);
#169=AXIS2_PLACEMENT_3D('',#236,#193,#194);
#170=AXIS2_PLACEMENT_3D('',#238,#195,#196);
#171=AXIS2_PLACEMENT_3D('',#241,#198,#199);
#172=AXIS2_PLACEMENT_3D('',#242,#200,#201);
#173=AXIS2_PLACEMENT_3D('',#251,#206,#207);
#174=AXIS2_PLACEMENT_3D('',#253,#208,#209);
#175=AXIS2_PLACEMENT_3D('',#255,#210,#211);
#176=AXIS2_PLACEMENT_3D('',#257,#213,#214);
#177=AXIS2_PLACEMENT_3D('',#263,#218,#219);
#178=AXIS2_PLACEMENT_3D('',#264,#220,#221);
#179=AXIS2_PLACEMENT_3D('',#265,#222,#223);
#180=AXIS2_PLACEMENT_3D('',#266,#224,#225);
#181=AXIS2_PLACEMENT_3D('',#267,#226,#227);
#182=DIRECTION('axis',(0.,0.,1.));
#183=DIRECTION('refdir',(1.,0.,0.));
#184=DIRECTION('center_axis',(0.,0.,-1.));
#185=DIRECTION('ref_axis',(-1.,0.,0.));
#186=DIRECTION('center_axis',(0.,0.,-1.));
#187=DIRECTION('ref_axis',(-1.,0.,0.));
#188=DIRECTION('',(0.,0.,-1.));
#189=DIRECTION('center_axis',(0.,0.,-1.));
#190=DIRECTION('ref_axis',(-1.,0.,0.));
#191=DIRECTION('center_axis',(0.,0.,1.));
#192=DIRECTION('ref_axis',(-1.,0.,0.));
#193=DIRECTION('center_axis',(0.,0.,1.));
#194=DIRECTION('ref_axis',(1.,0.,0.));
#195=DIRECTION('center_axis',(0.,0.,-1.));
#196=DIRECTION('ref_axis',(1.,0.,0.));
#197=DIRECTION('',(0.,0.,-1.));
#198=DIRECTION('center_axis',(0.,0.,-1.));
#199=DIRECTION('ref_axis',(1.,0.,0.));
#200=DIRECTION('center_axis',(0.,1.,0.));
#201=DIRECTION('ref_axis',(-1.,0.,0.));
#202=DIRECTION('',(1.,0.,0.));
#203=DIRECTION('',(0.,0.,1.));
#204=DIRECTION('',(-1.,0.,0.));
#205=DIRECTION('',(0.,0.,1.));
#206=DIRECTION('center_axis',(0.,0.,1.));
#207=DIRECTION('ref_axis',(2.27738056333365E-16,-1.,0.));
#208=DIRECTION('center_axis',(0.,0.,1.));
#209=DIRECTION('ref_axis',(2.27738056333365E-16,-1.,0.));
#210=DIRECTION('center_axis',(0.,0.,1.));
#211=DIRECTION('ref_axis',(2.27738056333365E-16,-1.,0.));
#212=DIRECTION('',(0.,0.,1.));
#213=DIRECTION('center_axis',(0.,-1.,0.));
#214=DIRECTION('ref_axis',(1.,0.,0.));
#215=DIRECTION('',(-1.,0.,0.));
#216=DIRECTION('',(1.,0.,0.));
#217=DIRECTION('',(0.,0.,1.));
#218=DIRECTION('center_axis',(0.,0.,1.));
#219=DIRECTION('ref_axis',(0.,1.,0.));
#220=DIRECTION('center_axis',(0.,0.,1.));
#221=DIRECTION('ref_axis',(0.,1.,0.));
#222=DIRECTION('center_axis',(0.,0.,1.));
#223=DIRECTION('ref_axis',(0.,1.,0.));
#224=DIRECTION('center_axis',(0.,0.,1.));
#225=DIRECTION('ref_axis',(1.,0.,0.));
#226=DIRECTION('center_axis',(0.,0.,1.));
#227=DIRECTION('ref_axis',(1.,0.,0.));
#228=CARTESIAN_POINT('',(0.,0.,0.));
#229=CARTESIAN_POINT('Origin',(-25.522307974891,8.71080518396779,15.));
#230=CARTESIAN_POINT('',(-15.522307974891,8.71080518396779,15.));
#231=CARTESIAN_POINT('Origin',(-25.522307974891,8.71080518396779,15.));
#232=CARTESIAN_POINT('',(-15.522307974891,8.71080518396779,6.5));
#233=CARTESIAN_POINT('',(-15.522307974891,8.71080518396778,15.));
#234=CARTESIAN_POINT('Origin',(-25.522307974891,8.71080518396779,6.5));
#235=CARTESIAN_POINT('Origin',(-25.522307974891,8.71080518396779,6.5));
#236=CARTESIAN_POINT('Origin',(26.25,0.,0.));
#237=CARTESIAN_POINT('',(12.25,-1.71450551880629E-15,15.));
#238=CARTESIAN_POINT('Origin',(26.25,0.,15.));
#239=CARTESIAN_POINT('',(12.25,-1.71450551880629E-15,0.));
#240=CARTESIAN_POINT('',(12.25,-1.71450551880629E-15,0.));
#241=CARTESIAN_POINT('Origin',(26.25,0.,0.));
#242=CARTESIAN_POINT('Origin',(26.25,19.5,0.));
#243=CARTESIAN_POINT('',(-26.25,19.5,0.));
#244=CARTESIAN_POINT('',(26.25,19.5,0.));
#245=CARTESIAN_POINT('',(-26.25,19.5,0.));
#246=CARTESIAN_POINT('',(-26.25,19.5,15.));
#247=CARTESIAN_POINT('',(-26.25,19.5,0.));
#248=CARTESIAN_POINT('',(26.25,19.5,15.));
#249=CARTESIAN_POINT('',(-26.25,19.5,15.));
#250=CARTESIAN_POINT('',(26.25,19.5,0.));
#251=CARTESIAN_POINT('Origin',(26.25,0.,0.));
#252=CARTESIAN_POINT('',(26.25,-19.5,0.));
#253=CARTESIAN_POINT('Origin',(26.25,0.,0.));
#254=CARTESIAN_POINT('',(26.25,-19.5,15.));
#255=CARTESIAN_POINT('Origin',(26.25,0.,15.));
#256=CARTESIAN_POINT('',(26.25,-19.5,0.));
#257=CARTESIAN_POINT('Origin',(-26.25,-19.5,0.));
#258=CARTESIAN_POINT('',(-26.25,-19.5,0.));
#259=CARTESIAN_POINT('',(26.25,-19.5,0.));
#260=CARTESIAN_POINT('',(-26.25,-19.5,15.));
#261=CARTESIAN_POINT('',(26.25,-19.5,15.));
#262=CARTESIAN_POINT('',(-26.25,-19.5,0.));
#263=CARTESIAN_POINT('Origin',(-26.25,1.11022302462516E-15,0.));
#264=CARTESIAN_POINT('Origin',(-26.25,1.11022302462516E-15,0.));
#265=CARTESIAN_POINT('Origin',(-26.25,1.11022302462516E-15,15.));
#266=CARTESIAN_POINT('Origin',(0.,0.,15.));
#267=CARTESIAN_POINT('Origin',(0.,0.,0.));
#268=UNCERTAINTY_MEASURE_WITH_UNIT(LENGTH_MEASURE(0.01),#272,
'DISTANCE_ACCURACY_VALUE',
'Maximum model space distance between geometric entities at asserted c
onnectivities');
#269=UNCERTAINTY_MEASURE_WITH_UNIT(LENGTH_MEASURE(0.01),#272,
'DISTANCE_ACCURACY_VALUE',
'Maximum model space distance between geometric entities at asserted c
onnectivities');
#270=(
GEOMETRIC_REPRESENTATION_CONTEXT(3)
GLOBAL_UNCERTAINTY_ASSIGNED_CONTEXT((#268))
GLOBAL_UNIT_ASSIGNED_CONTEXT((#272,#274,#275))
REPRESENTATION_CONTEXT('','3D')
);
#271=(
GEOMETRIC_REPRESENTATION_CONTEXT(3)
GLOBAL_UNCERTAINTY_ASSIGNED_CONTEXT((#269))
GLOBAL_UNIT_ASSIGNED_CONTEXT((#272,#274,#275))
REPRESENTATION_CONTEXT('','3D')
);
#272=(
LENGTH_UNIT()
NAMED_UNIT(*)
SI_UNIT(.MILLI.,.METRE.)
);
#273=(
LENGTH_UNIT()
NAMED_UNIT(*)
SI_UNIT($,.METRE.)
);
#274=(
NAMED_UNIT(*)
PLANE_ANGLE_UNIT()
SI_UNIT($,.RADIAN.)
);
#275=(
NAMED_UNIT(*)
SI_UNIT($,.STERADIAN.)
SOLID_ANGLE_UNIT()
);
#276=SHAPE_DEFINITION_REPRESENTATION(#277,#278);
#277=PRODUCT_DEFINITION_SHAPE('',$,#280);
#278=SHAPE_REPRESENTATION('',(#164),#270);
#279=PRODUCT_DEFINITION_CONTEXT('part definition',#284,'design');
#280=PRODUCT_DEFINITION('Crouzet 1','Crouzet 1 v3',#281,#279);
#281=PRODUCT_DEFINITION_FORMATION('',$,#286);
#282=PRODUCT_RELATED_PRODUCT_CATEGORY('Crouzet 1 v3','Crouzet 1 v3',(#286));
#283=APPLICATION_PROTOCOL_DEFINITION('international standard',
'automotive_design',2009,#284);
#284=APPLICATION_CONTEXT(
'Core Data for Automotive Mechanical Design Process');
#285=PRODUCT_CONTEXT('part definition',#284,'mechanical');
#286=PRODUCT('Crouzet 1','Crouzet 1 v3',$,(#285));
#287=PRESENTATION_STYLE_ASSIGNMENT((#288));
#288=SURFACE_STYLE_USAGE(.BOTH.,#289);
#289=SURFACE_SIDE_STYLE('',(#290));
#290=SURFACE_STYLE_FILL_AREA(#291);
#291=FILL_AREA_STYLE('Acier - Satin\X\E9',(#292));
#292=FILL_AREA_STYLE_COLOUR('Acier - Satin\X\E9',#293);
#293=COLOUR_RGB('Acier - Satin\X\E9',0.627450980392157,0.627450980392157,
0.627450980392157);
ENDSEC;
END-ISO-10303-21;
