ISO-10303-21;
HEADER;
FILE_DESCRIPTION(('CATIA V5 STEP Exchange'),'2;1');

FILE_NAME('C:\\ENTREPRISE\\LOCAL\\Eoliene\\CAO\\EOLX1.2 Rotor 4 pales Vilebrequin\\EOLX1.2-D-130-009_A.stp','2020-01-30T22:17:07+00:00',('none'),('none'),'CATIA Version 5 Release 21 GA (IN-10)','CATIA V5 STEP AP203','none');

FILE_SCHEMA(('CONFIG_CONTROL_DESIGN'));

ENDSEC;
/* file written by CATIA V5R21 */
DATA;
#5=PRODUCT('EOLX1.2-D-130-009_A','','',(#2)) ;
#1=APPLICATION_CONTEXT('configuration controlled 3D design of mechanical parts and assemblies') ;
#14=PRODUCT_DEFINITION('',' ',#6,#3) ;
#16=SECURITY_CLASSIFICATION(' ',' ',#15) ;
#15=SECURITY_CLASSIFICATION_LEVEL('unclassified') ;
#47=CARTESIAN_POINT(' ',(0.,0.,0.)) ;
#52=CARTESIAN_POINT('Axis2P3D Location',(0.,0.,0.800000000003)) ;
#57=CARTESIAN_POINT('Axis2P3D Location',(0.,0.,-1.31006316906E-014)) ;
#61=CARTESIAN_POINT('Vertex',(2.87655323163,5.26549537134,-1.31006316906E-014)) ;
#63=CARTESIAN_POINT('Vertex',(-2.87655323163,-5.26549537134,-1.31006316906E-014)) ;
#66=CARTESIAN_POINT('Line Origine',(2.87655323163,5.26549537134,0.511324865405)) ;
#70=CARTESIAN_POINT('Vertex',(2.87655323163,5.26549537134,1.02264973081)) ;
#73=CARTESIAN_POINT('Axis2P3D Location',(0.,0.,1.02264973081)) ;
#77=CARTESIAN_POINT('Vertex',(-2.87655323163,-5.26549537134,1.02264973081)) ;
#80=CARTESIAN_POINT('Line Origine',(-2.87655323163,-5.26549537134,0.511324865405)) ;
#92=CARTESIAN_POINT('Axis2P3D Location',(0.,0.,-1.31006316906E-014)) ;
#97=CARTESIAN_POINT('Axis2P3D Location',(0.,0.,1.02264973081)) ;
#109=CARTESIAN_POINT('Axis2P3D Location',(0.,0.,1.6)) ;
#114=CARTESIAN_POINT('Line Origine',(2.63684046232,4.8267040904,1.31132486541)) ;
#118=CARTESIAN_POINT('Vertex',(2.39712769302,4.38791280945,1.6)) ;
#121=CARTESIAN_POINT('Axis2P3D Location',(0.,0.,1.6)) ;
#125=CARTESIAN_POINT('Vertex',(-2.39712769302,-4.38791280945,1.6)) ;
#128=CARTESIAN_POINT('Line Origine',(-2.63684046232,-4.8267040904,1.31132486541)) ;
#140=CARTESIAN_POINT('Axis2P3D Location',(0.,0.,1.6)) ;
#152=CARTESIAN_POINT('Axis2P3D Location',(0.,0.,1.)) ;
#157=CARTESIAN_POINT('Axis2P3D Location',(0.,0.,1.6)) ;
#161=CARTESIAN_POINT('Vertex',(1.77387449284,3.24705547899,1.6)) ;
#163=CARTESIAN_POINT('Vertex',(-1.77387449284,-3.24705547899,1.6)) ;
#166=CARTESIAN_POINT('Line Origine',(1.63004683125,2.98378071043,1.3)) ;
#170=CARTESIAN_POINT('Vertex',(1.48621916967,2.72050594186,1.)) ;
#173=CARTESIAN_POINT('Axis2P3D Location',(0.,0.,1.)) ;
#177=CARTESIAN_POINT('Vertex',(-1.48621916967,-2.72050594186,1.)) ;
#180=CARTESIAN_POINT('Line Origine',(-1.63004683125,-2.98378071043,1.3)) ;
#192=CARTESIAN_POINT('Axis2P3D Location',(0.,0.,1.6)) ;
#197=CARTESIAN_POINT('Axis2P3D Location',(0.,0.,1.)) ;
#209=CARTESIAN_POINT('Axis2P3D Location',(0.,0.,0.800000000003)) ;
#214=CARTESIAN_POINT('Line Origine',(1.48621916967,2.72050594186,0.5)) ;
#218=CARTESIAN_POINT('Vertex',(1.48621916967,2.72050594186,-6.66133814775E-016)) ;
#221=CARTESIAN_POINT('Axis2P3D Location',(0.,0.,-5.55111512313E-016)) ;
#225=CARTESIAN_POINT('Vertex',(-1.48621916967,-2.72050594186,-6.66133814775E-016)) ;
#228=CARTESIAN_POINT('Line Origine',(-1.48621916967,-2.72050594186,0.5)) ;
#240=CARTESIAN_POINT('Axis2P3D Location',(0.,0.,-5.55111512313E-016)) ;
#252=CARTESIAN_POINT('Axis2P3D Location',(0.,6.,0.)) ;
#266=CARTESIAN_POINT('Axis2P3D Location',(0.,3.7,1.6)) ;
#283=CARTESIAN_POINT('Axis2P3D Location',(0.,0.,0.)) ;
#53=DIRECTION('Axis2P3D Direction',(0.,0.,-1.)) ;
#54=DIRECTION('Axis2P3D XDirection',(0.479425538604,0.87758256189,0.)) ;
#58=DIRECTION('Axis2P3D Direction',(0.,0.,-1.)) ;
#67=DIRECTION('Vector Direction',(0.,0.,-1.)) ;
#74=DIRECTION('Axis2P3D Direction',(0.,0.,-1.)) ;
#81=DIRECTION('Vector Direction',(0.,0.,-1.)) ;
#93=DIRECTION('Axis2P3D Direction',(0.,0.,-1.)) ;
#98=DIRECTION('Axis2P3D Direction',(0.,0.,-1.)) ;
#110=DIRECTION('Axis2P3D Direction',(0.,0.,-1.)) ;
#111=DIRECTION('Axis2P3D XDirection',(0.479425538604,0.87758256189,0.)) ;
#115=DIRECTION('Vector Direction',(0.415194695654,0.760008792515,-0.5)) ;
#122=DIRECTION('Axis2P3D Direction',(0.,0.,-1.)) ;
#129=DIRECTION('Vector Direction',(-0.415194695654,-0.760008792515,-0.5)) ;
#141=DIRECTION('Axis2P3D Direction',(0.,0.,-1.)) ;
#153=DIRECTION('Axis2P3D Direction',(-0.,-0.,1.)) ;
#154=DIRECTION('Axis2P3D XDirection',(0.479425538604,0.87758256189,0.)) ;
#158=DIRECTION('Axis2P3D Direction',(-0.,0.,1.)) ;
#167=DIRECTION('Vector Direction',(0.339005049421,0.620544580564,0.707106781187)) ;
#174=DIRECTION('Axis2P3D Direction',(-0.,0.,1.)) ;
#181=DIRECTION('Vector Direction',(-0.339005049421,-0.620544580564,0.707106781187)) ;
#193=DIRECTION('Axis2P3D Direction',(-0.,0.,1.)) ;
#198=DIRECTION('Axis2P3D Direction',(-0.,0.,1.)) ;
#210=DIRECTION('Axis2P3D Direction',(0.,0.,-1.)) ;
#211=DIRECTION('Axis2P3D XDirection',(0.479425538604,0.87758256189,0.)) ;
#215=DIRECTION('Vector Direction',(0.,0.,-1.)) ;
#222=DIRECTION('Axis2P3D Direction',(0.,0.,-1.)) ;
#229=DIRECTION('Vector Direction',(0.,0.,-1.)) ;
#241=DIRECTION('Axis2P3D Direction',(0.,0.,-1.)) ;
#253=DIRECTION('Axis2P3D Direction',(0.,0.,-1.)) ;
#254=DIRECTION('Axis2P3D XDirection',(1.,0.,0.)) ;
#267=DIRECTION('Axis2P3D Direction',(0.,0.,-1.)) ;
#268=DIRECTION('Axis2P3D XDirection',(1.,0.,0.)) ;
#284=DIRECTION('Axis2P3D Direction',(0.,0.,1.)) ;
#285=DIRECTION('Axis2P3D XDirection',(1.,0.,0.)) ;
#48=AXIS2_PLACEMENT_3D(' ',#47,$,$) ;
#55=AXIS2_PLACEMENT_3D('Cylinder Axis2P3D',#52,#53,#54) ;
#59=AXIS2_PLACEMENT_3D('Circle Axis2P3D',#57,#58,$) ;
#75=AXIS2_PLACEMENT_3D('Circle Axis2P3D',#73,#74,$) ;
#94=AXIS2_PLACEMENT_3D('Circle Axis2P3D',#92,#93,$) ;
#99=AXIS2_PLACEMENT_3D('Circle Axis2P3D',#97,#98,$) ;
#112=AXIS2_PLACEMENT_3D('Cone Axis2P3D',#109,#110,#111) ;
#123=AXIS2_PLACEMENT_3D('Circle Axis2P3D',#121,#122,$) ;
#142=AXIS2_PLACEMENT_3D('Circle Axis2P3D',#140,#141,$) ;
#155=AXIS2_PLACEMENT_3D('Cone Axis2P3D',#152,#153,#154) ;
#159=AXIS2_PLACEMENT_3D('Circle Axis2P3D',#157,#158,$) ;
#175=AXIS2_PLACEMENT_3D('Circle Axis2P3D',#173,#174,$) ;
#194=AXIS2_PLACEMENT_3D('Circle Axis2P3D',#192,#193,$) ;
#199=AXIS2_PLACEMENT_3D('Circle Axis2P3D',#197,#198,$) ;
#212=AXIS2_PLACEMENT_3D('Cylinder Axis2P3D',#209,#210,#211) ;
#223=AXIS2_PLACEMENT_3D('Circle Axis2P3D',#221,#222,$) ;
#242=AXIS2_PLACEMENT_3D('Circle Axis2P3D',#240,#241,$) ;
#255=AXIS2_PLACEMENT_3D('Plane Axis2P3D',#252,#253,#254) ;
#269=AXIS2_PLACEMENT_3D('Plane Axis2P3D',#266,#267,#268) ;
#286=AXIS2_PLACEMENT_3D('Absolute Axis System',#283,#284,#285) ;
#40=PRODUCT_DEFINITION_SHAPE(' ',' ',#14) ;
#31=APPROVAL_PERSON_ORGANIZATION(#25,#21,#19) ;
#25=PERSON_AND_ORGANIZATION(#22,#23) ;
#22=PERSON(' ',' ',' ',$,$,$) ;
#23=ORGANIZATION(' ',' ',' ') ;
#21=APPROVAL(#20,' ') ;
#20=APPROVAL_STATUS('not_yet_approved') ;
#19=APPROVAL_ROLE('APPROVER') ;
#13=DATE_AND_TIME(#11,#12) ;
#12=LOCAL_TIME(23,17,7.,#10) ;
#10=COORDINATED_UNIVERSAL_TIME_OFFSET(0,0,.AHEAD.) ;
#86=ORIENTED_EDGE('',*,*,#65,.F.) ;
#87=ORIENTED_EDGE('',*,*,#72,.T.) ;
#88=ORIENTED_EDGE('',*,*,#79,.T.) ;
#89=ORIENTED_EDGE('',*,*,#84,.F.) ;
#103=ORIENTED_EDGE('',*,*,#96,.F.) ;
#104=ORIENTED_EDGE('',*,*,#84,.T.) ;
#105=ORIENTED_EDGE('',*,*,#101,.T.) ;
#106=ORIENTED_EDGE('',*,*,#72,.F.) ;
#134=ORIENTED_EDGE('',*,*,#79,.F.) ;
#135=ORIENTED_EDGE('',*,*,#120,.T.) ;
#136=ORIENTED_EDGE('',*,*,#127,.T.) ;
#137=ORIENTED_EDGE('',*,*,#132,.F.) ;
#146=ORIENTED_EDGE('',*,*,#101,.F.) ;
#147=ORIENTED_EDGE('',*,*,#132,.T.) ;
#148=ORIENTED_EDGE('',*,*,#144,.T.) ;
#149=ORIENTED_EDGE('',*,*,#120,.F.) ;
#186=ORIENTED_EDGE('',*,*,#165,.F.) ;
#187=ORIENTED_EDGE('',*,*,#172,.T.) ;
#188=ORIENTED_EDGE('',*,*,#179,.T.) ;
#189=ORIENTED_EDGE('',*,*,#184,.F.) ;
#203=ORIENTED_EDGE('',*,*,#196,.F.) ;
#204=ORIENTED_EDGE('',*,*,#184,.T.) ;
#205=ORIENTED_EDGE('',*,*,#201,.T.) ;
#206=ORIENTED_EDGE('',*,*,#172,.F.) ;
#234=ORIENTED_EDGE('',*,*,#179,.F.) ;
#235=ORIENTED_EDGE('',*,*,#220,.T.) ;
#236=ORIENTED_EDGE('',*,*,#227,.T.) ;
#237=ORIENTED_EDGE('',*,*,#232,.F.) ;
#246=ORIENTED_EDGE('',*,*,#201,.F.) ;
#247=ORIENTED_EDGE('',*,*,#232,.T.) ;
#248=ORIENTED_EDGE('',*,*,#244,.T.) ;
#249=ORIENTED_EDGE('',*,*,#220,.F.) ;
#258=ORIENTED_EDGE('',*,*,#96,.T.) ;
#259=ORIENTED_EDGE('',*,*,#65,.T.) ;
#262=ORIENTED_EDGE('',*,*,#227,.F.) ;
#263=ORIENTED_EDGE('',*,*,#244,.F.) ;
#272=ORIENTED_EDGE('',*,*,#127,.F.) ;
#273=ORIENTED_EDGE('',*,*,#144,.F.) ;
#276=ORIENTED_EDGE('',*,*,#196,.T.) ;
#277=ORIENTED_EDGE('',*,*,#165,.T.) ;
#264=FACE_BOUND('',#261,.T.) ;
#278=FACE_BOUND('',#275,.T.) ;
#51=CLOSED_SHELL('Closed Shell',(#91,#108,#139,#151,#191,#208,#239,#251,#265,#279)) ;
#68=VECTOR('Line Direction',#67,1.) ;
#82=VECTOR('Line Direction',#81,1.) ;
#116=VECTOR('Line Direction',#115,1.) ;
#130=VECTOR('Line Direction',#129,1.) ;
#168=VECTOR('Line Direction',#167,1.) ;
#182=VECTOR('Line Direction',#181,1.) ;
#216=VECTOR('Line Direction',#215,1.) ;
#230=VECTOR('Line Direction',#229,1.) ;
#281=ADVANCED_BREP_SHAPE_REPRESENTATION('NONE',(#280),#46) ;
#49=SHAPE_REPRESENTATION(' ',(#48),#46) ;
#91=ADVANCED_FACE('PartBody',(#90),#56,.T.) ;
#108=ADVANCED_FACE('PartBody',(#107),#56,.T.) ;
#139=ADVANCED_FACE('PartBody',(#138),#113,.T.) ;
#151=ADVANCED_FACE('PartBody',(#150),#113,.T.) ;
#191=ADVANCED_FACE('PartBody',(#190),#156,.F.) ;
#208=ADVANCED_FACE('PartBody',(#207),#156,.F.) ;
#239=ADVANCED_FACE('PartBody',(#238),#213,.F.) ;
#251=ADVANCED_FACE('PartBody',(#250),#213,.F.) ;
#265=ADVANCED_FACE('PartBody',(#260,#264),#256,.T.) ;
#279=ADVANCED_FACE('PartBody',(#274,#278),#270,.F.) ;
#4=APPLICATION_PROTOCOL_DEFINITION('international standard','config_control_design',1994,#1) ;
#32=APPROVAL_DATE_TIME(#13,#21) ;
#280=MANIFOLD_SOLID_BREP('PartBody',#51) ;
#11=CALENDAR_DATE(2020,30,1) ;
#30=CC_DESIGN_APPROVAL(#21,(#16,#6,#14)) ;
#18=CC_DESIGN_DATE_AND_TIME_ASSIGNMENT(#13,#17,(#16)) ;
#29=CC_DESIGN_DATE_AND_TIME_ASSIGNMENT(#13,#28,(#14)) ;
#17=DATE_TIME_ROLE('classification_date') ;
#28=DATE_TIME_ROLE('creation_date') ;
#27=CC_DESIGN_PERSON_AND_ORGANIZATION_ASSIGNMENT(#25,#26,(#16)) ;
#33=CC_DESIGN_PERSON_AND_ORGANIZATION_ASSIGNMENT(#25,#34,(#6)) ;
#35=CC_DESIGN_PERSON_AND_ORGANIZATION_ASSIGNMENT(#25,#36,(#6,#14)) ;
#37=CC_DESIGN_PERSON_AND_ORGANIZATION_ASSIGNMENT(#25,#38,(#5)) ;
#26=PERSON_AND_ORGANIZATION_ROLE('classification_officer') ;
#34=PERSON_AND_ORGANIZATION_ROLE('design_supplier') ;
#36=PERSON_AND_ORGANIZATION_ROLE('creator') ;
#38=PERSON_AND_ORGANIZATION_ROLE('design_owner') ;
#39=CC_DESIGN_SECURITY_CLASSIFICATION(#16,(#6)) ;
#60=CIRCLE('generated circle',#59,6.) ;
#76=CIRCLE('generated circle',#75,6.) ;
#95=CIRCLE('generated circle',#94,6.) ;
#100=CIRCLE('generated circle',#99,6.) ;
#124=CIRCLE('generated circle',#123,5.) ;
#143=CIRCLE('generated circle',#142,5.) ;
#160=CIRCLE('generated circle',#159,3.7) ;
#176=CIRCLE('generated circle',#175,3.1) ;
#195=CIRCLE('generated circle',#194,3.7) ;
#200=CIRCLE('generated circle',#199,3.1) ;
#224=CIRCLE('generated circle',#223,3.1) ;
#243=CIRCLE('generated circle',#242,3.1) ;
#113=CONICAL_SURFACE('Cone',#112,5.,1.0471975512) ;
#156=CONICAL_SURFACE('Cone',#155,3.1,0.785398163397) ;
#282=SHAPE_REPRESENTATION_RELATIONSHIP(' ',' ',#49,#281) ;
#56=CYLINDRICAL_SURFACE('generated cylinder',#55,6.) ;
#213=CYLINDRICAL_SURFACE('generated cylinder',#212,3.1) ;
#3=DESIGN_CONTEXT(' ',#1,'design') ;
#65=EDGE_CURVE('',#62,#64,#60,.T.) ;
#72=EDGE_CURVE('',#62,#71,#69,.F.) ;
#79=EDGE_CURVE('',#71,#78,#76,.T.) ;
#84=EDGE_CURVE('',#64,#78,#83,.F.) ;
#96=EDGE_CURVE('',#64,#62,#95,.T.) ;
#101=EDGE_CURVE('',#78,#71,#100,.T.) ;
#120=EDGE_CURVE('',#71,#119,#117,.F.) ;
#127=EDGE_CURVE('',#119,#126,#124,.T.) ;
#132=EDGE_CURVE('',#78,#126,#131,.F.) ;
#144=EDGE_CURVE('',#126,#119,#143,.T.) ;
#165=EDGE_CURVE('',#162,#164,#160,.F.) ;
#172=EDGE_CURVE('',#162,#171,#169,.F.) ;
#179=EDGE_CURVE('',#171,#178,#176,.F.) ;
#184=EDGE_CURVE('',#164,#178,#183,.F.) ;
#196=EDGE_CURVE('',#164,#162,#195,.F.) ;
#201=EDGE_CURVE('',#178,#171,#200,.F.) ;
#220=EDGE_CURVE('',#171,#219,#217,.T.) ;
#227=EDGE_CURVE('',#219,#226,#224,.T.) ;
#232=EDGE_CURVE('',#178,#226,#231,.T.) ;
#244=EDGE_CURVE('',#226,#219,#243,.T.) ;
#85=EDGE_LOOP('',(#86,#87,#88,#89)) ;
#102=EDGE_LOOP('',(#103,#104,#105,#106)) ;
#133=EDGE_LOOP('',(#134,#135,#136,#137)) ;
#145=EDGE_LOOP('',(#146,#147,#148,#149)) ;
#185=EDGE_LOOP('',(#186,#187,#188,#189)) ;
#202=EDGE_LOOP('',(#203,#204,#205,#206)) ;
#233=EDGE_LOOP('',(#234,#235,#236,#237)) ;
#245=EDGE_LOOP('',(#246,#247,#248,#249)) ;
#257=EDGE_LOOP('',(#258,#259)) ;
#261=EDGE_LOOP('',(#262,#263)) ;
#271=EDGE_LOOP('',(#272,#273)) ;
#275=EDGE_LOOP('',(#276,#277)) ;
#90=FACE_OUTER_BOUND('',#85,.T.) ;
#107=FACE_OUTER_BOUND('',#102,.T.) ;
#138=FACE_OUTER_BOUND('',#133,.T.) ;
#150=FACE_OUTER_BOUND('',#145,.T.) ;
#190=FACE_OUTER_BOUND('',#185,.T.) ;
#207=FACE_OUTER_BOUND('',#202,.T.) ;
#238=FACE_OUTER_BOUND('',#233,.T.) ;
#250=FACE_OUTER_BOUND('',#245,.T.) ;
#260=FACE_OUTER_BOUND('',#257,.T.) ;
#274=FACE_OUTER_BOUND('',#271,.T.) ;
#45=UNCERTAINTY_MEASURE_WITH_UNIT(LENGTH_MEASURE(0.005),#41,'distance_accuracy_value','CONFUSED CURVE UNCERTAINTY') ;
#69=LINE('Line',#66,#68) ;
#83=LINE('Line',#80,#82) ;
#117=LINE('Line',#114,#116) ;
#131=LINE('Line',#128,#130) ;
#169=LINE('Line',#166,#168) ;
#183=LINE('Line',#180,#182) ;
#217=LINE('Line',#214,#216) ;
#231=LINE('Line',#228,#230) ;
#2=MECHANICAL_CONTEXT(' ',#1,'mechanical') ;
#24=PERSONAL_ADDRESS(' ',' ',' ',' ',' ',' ',' ',' ',' ',' ',' ',' ',(#22),' ') ;
#256=PLANE('',#255) ;
#270=PLANE('',#269) ;
#43=PLANE_ANGLE_MEASURE_WITH_UNIT(PLANE_ANGLE_MEASURE(0.0174532925199),#42) ;
#7=PRODUCT_CATEGORY('part',$) ;
#9=PRODUCT_CATEGORY_RELATIONSHIP(' ',' ',#7,#8) ;
#6=PRODUCT_DEFINITION_FORMATION_WITH_SPECIFIED_SOURCE('',' ',#5,.NOT_KNOWN.) ;
#8=PRODUCT_RELATED_PRODUCT_CATEGORY('detail',$,(#5)) ;
#50=SHAPE_DEFINITION_REPRESENTATION(#40,#49) ;
#62=VERTEX_POINT('',#61) ;
#64=VERTEX_POINT('',#63) ;
#71=VERTEX_POINT('',#70) ;
#78=VERTEX_POINT('',#77) ;
#119=VERTEX_POINT('',#118) ;
#126=VERTEX_POINT('',#125) ;
#162=VERTEX_POINT('',#161) ;
#164=VERTEX_POINT('',#163) ;
#171=VERTEX_POINT('',#170) ;
#178=VERTEX_POINT('',#177) ;
#219=VERTEX_POINT('',#218) ;
#226=VERTEX_POINT('',#225) ;
#41=(LENGTH_UNIT()NAMED_UNIT(*)SI_UNIT(.MILLI.,.METRE.)) ;
#42=(NAMED_UNIT(*)PLANE_ANGLE_UNIT()SI_UNIT($,.RADIAN.)) ;
#44=(NAMED_UNIT(*)SI_UNIT($,.STERADIAN.)SOLID_ANGLE_UNIT()) ;
#46=(GEOMETRIC_REPRESENTATION_CONTEXT(3)GLOBAL_UNCERTAINTY_ASSIGNED_CONTEXT((#45))GLOBAL_UNIT_ASSIGNED_CONTEXT((#41,#42,#44))REPRESENTATION_CONTEXT(' ',' ')) ;
ENDSEC;
END-ISO-10303-21;
