ISO-10303-21;
HEADER;
FILE_DESCRIPTION (( 'STEP AP214' ),
    '1' );
FILE_NAME ('Presse chapeau.STEP',
    '2020-06-17T15:46:14',
    ( '' ),
    ( '' ),
    'SwSTEP 2.0',
    'SolidWorks 2016',
    '' );
FILE_SCHEMA (( 'AUTOMOTIVE_DESIGN' ));
ENDSEC;

DATA;
#1 = EDGE_LOOP ( 'NONE', ( #178, #277 ) ) ;
#2 = EDGE_LOOP ( 'NONE', ( #139, #276 ) ) ;
#3 = AXIS2_PLACEMENT_3D ( 'NONE', #213, #190, #42 ) ;
#4 = AXIS2_PLACEMENT_3D ( 'NONE', #155, #173, #108 ) ;
#5 = ORIENTED_EDGE ( 'NONE', *, *, #118, .F. ) ;
#6 = EDGE_CURVE ( 'NONE', #208, #157, #224, .T. ) ;
#7 = PLANE ( 'NONE',  #188 ) ;
#8 =( NAMED_UNIT ( * ) SI_UNIT ( $, .STERADIAN. ) SOLID_ANGLE_UNIT ( ) );
#9 = ORIENTED_EDGE ( 'NONE', *, *, #13, .T. ) ;
#10 = AXIS2_PLACEMENT_3D ( 'NONE', #175, #267, #87 ) ;
#11 = DIRECTION ( 'NONE',  ( 0.0000000000000000000, 1.000000000000000000, 0.0000000000000000000 ) ) ;
#12 = DIRECTION ( 'NONE',  ( -0.0000000000000000000, -1.000000000000000000, -0.0000000000000000000 ) ) ;
#13 = EDGE_CURVE ( 'NONE', #83, #228, #159, .T. ) ;
#14 = CARTESIAN_POINT ( 'NONE',  ( 2.143131898507868600E-015, 0.0000000000000000000, 17.50000000000000400 ) ) ;
#15 = ORIENTED_EDGE ( 'NONE', *, *, #283, .F. ) ;
#16 = DIRECTION ( 'NONE',  ( 0.0000000000000000000, 0.0000000000000000000, -1.000000000000000000 ) ) ;
#17 = DIRECTION ( 'NONE',  ( -0.0000000000000000000, -1.000000000000000000, -0.0000000000000000000 ) ) ;
#18 = CIRCLE ( 'NONE', #219, 23.00000000000000000 ) ;
#19 = FILL_AREA_STYLE_COLOUR ( '', #192 ) ;
#20 = ORIENTED_EDGE ( 'NONE', *, *, #80, .F. ) ;
#21 = SURFACE_STYLE_USAGE ( .BOTH. , #294 ) ;
#22 = EDGE_CURVE ( 'NONE', #182, #208, #47, .T. ) ;
#23 = VECTOR ( 'NONE', #64, 1000.000000000000000 ) ;
#24 = ORIENTED_EDGE ( 'NONE', *, *, #22, .T. ) ;
#25 = PRODUCT_CONTEXT ( 'NONE', #154, 'mechanical' ) ;
#26 = EDGE_CURVE ( 'NONE', #77, #53, #168, .T. ) ;
#27 = SURFACE_STYLE_FILL_AREA ( #247 ) ;
#28 = ORIENTED_EDGE ( 'NONE', *, *, #55, .T. ) ;
#29 = MANIFOLD_SOLID_BREP ( 'Révolution1', #135 ) ;
#30 = SURFACE_STYLE_USAGE ( .BOTH. , #121 ) ;
#31 = ORIENTED_EDGE ( 'NONE', *, *, #264, .T. ) ;
#32 = PRESENTATION_STYLE_ASSIGNMENT (( #21 ) ) ;
#33 = DIRECTION ( 'NONE',  ( 0.0000000000000000000, -0.0000000000000000000, 1.000000000000000000 ) ) ;
#34 = CYLINDRICAL_SURFACE ( 'NONE', #214, 20.00000000000000400 ) ;
#35 = ORIENTED_EDGE ( 'NONE', *, *, #127, .T. ) ;
#36 = AXIS2_PLACEMENT_3D ( 'NONE', #290, #196, #271 ) ;
#37 = CARTESIAN_POINT ( 'NONE',  ( 0.0000000000000000000, 15.00000000000000000, -20.00000000000000400 ) ) ;
#38 = DIRECTION ( 'NONE',  ( 0.0000000000000000000, 0.0000000000000000000, -1.000000000000000000 ) ) ;
#39 = CARTESIAN_POINT ( 'NONE',  ( 0.0000000000000000000, 18.00000000000000000, -17.50000000000000400 ) ) ;
#40 = CYLINDRICAL_SURFACE ( 'NONE', #180, 17.50000000000000400 ) ;
#41 = EDGE_LOOP ( 'NONE', ( #161, #239, #269, #235 ) ) ;
#42 = DIRECTION ( 'NONE',  ( 0.0000000000000000000, 0.0000000000000000000, -1.000000000000000000 ) ) ;
#43 = CIRCLE ( 'NONE', #278, 23.00000000000000000 ) ;
#44 = DIRECTION ( 'NONE',  ( -0.0000000000000000000, -1.000000000000000000, -0.0000000000000000000 ) ) ;
#45 = DIRECTION ( 'NONE',  ( 0.0000000000000000000, 0.0000000000000000000, -1.000000000000000000 ) ) ;
#46 = PLANE ( 'NONE',  #222 ) ;
#47 = CIRCLE ( 'NONE', #85, 20.00000000000000400 ) ;
#48 = VERTEX_POINT ( 'NONE', #117 ) ;
#49 = ADVANCED_FACE ( 'NONE', ( #165, #120 ), #7, .F. ) ;
#50 = FACE_OUTER_BOUND ( 'NONE', #255, .T. ) ;
#51 = PRODUCT_DEFINITION ( 'UNKNOWN', '', #142, #258 ) ;
#52 = EDGE_CURVE ( 'NONE', #211, #169, #217, .T. ) ;
#53 = VERTEX_POINT ( 'NONE', #289 ) ;
#54 = CARTESIAN_POINT ( 'NONE',  ( 0.0000000000000000000, 0.0000000000000000000, -17.50000000000000400 ) ) ;
#55 = EDGE_CURVE ( 'NONE', #125, #83, #237, .T. ) ;
#56 = CARTESIAN_POINT ( 'NONE',  ( 0.0000000000000000000, 18.00000000000000000, 0.0000000000000000000 ) ) ;
#57 = CYLINDRICAL_SURFACE ( 'NONE', #136, 20.00000000000000400 ) ;
#58 = ORIENTED_EDGE ( 'NONE', *, *, #6, .T. ) ;
#59 = CARTESIAN_POINT ( 'NONE',  ( 0.0000000000000000000, 18.00000000000000000, 0.0000000000000000000 ) ) ;
#60 = CARTESIAN_POINT ( 'NONE',  ( 0.0000000000000000000, 0.0000000000000000000, -20.00000000000000000 ) ) ;
#61 = FACE_BOUND ( 'NONE', #261, .T. ) ;
#62 = DIRECTION ( 'NONE',  ( -0.0000000000000000000, -1.000000000000000000, -0.0000000000000000000 ) ) ;
#63 = AXIS2_PLACEMENT_3D ( 'NONE', #245, #177, #16 ) ;
#64 = DIRECTION ( 'NONE',  ( -0.0000000000000000000, -1.000000000000000000, -0.0000000000000000000 ) ) ;
#65 = PRODUCT_DEFINITION_SHAPE ( 'NONE', 'NONE',  #51 ) ;
#66 = VECTOR ( 'NONE', #122, 1000.000000000000000 ) ;
#67 = ORIENTED_EDGE ( 'NONE', *, *, #232, .F. ) ;
#68 =( NAMED_UNIT ( * ) PLANE_ANGLE_UNIT ( ) SI_UNIT ( $, .RADIAN. ) );
#69 = PRODUCT_RELATED_PRODUCT_CATEGORY ( 'part', '', ( #140 ) ) ;
#70 = EDGE_LOOP ( 'NONE', ( #31, #24 ) ) ;
#71 = EDGE_CURVE ( 'NONE', #77, #169, #134, .T. ) ;
#72 = FACE_OUTER_BOUND ( 'NONE', #41, .T. ) ;
#73 = ORIENTED_EDGE ( 'NONE', *, *, #71, .F. ) ;
#74 = SHAPE_DEFINITION_REPRESENTATION ( #65, #229 ) ;
#75 = EDGE_LOOP ( 'NONE', ( #35, #116, #5, #97 ) ) ;
#76 = AXIS2_PLACEMENT_3D ( 'NONE', #132, #17, #225 ) ;
#77 = VERTEX_POINT ( 'NONE', #39 ) ;
#78 = DIRECTION ( 'NONE',  ( -0.0000000000000000000, -1.000000000000000000, -0.0000000000000000000 ) ) ;
#79 = CARTESIAN_POINT ( 'NONE',  ( 0.0000000000000000000, 18.00000000000000000, 0.0000000000000000000 ) ) ;
#80 = EDGE_CURVE ( 'NONE', #53, #77, #107, .T. ) ;
#81 = DIRECTION ( 'NONE',  ( 0.0000000000000000000, 0.0000000000000000000, -1.000000000000000000 ) ) ;
#82 = UNCERTAINTY_MEASURE_WITH_UNIT (LENGTH_MEASURE( 1.000000000000000100E-005 ), #200, 'distance_accuracy_value', 'NONE');
#83 = VERTEX_POINT ( 'NONE', #185 ) ;
#84 = CARTESIAN_POINT ( 'NONE',  ( 2.449293598294706900E-015, 0.0000000000000000000, 20.00000000000000400 ) ) ;
#85 = AXIS2_PLACEMENT_3D ( 'NONE', #209, #183, #163 ) ;
#86 = UNCERTAINTY_MEASURE_WITH_UNIT (LENGTH_MEASURE( 1.000000000000000100E-005 ), #146, 'distance_accuracy_value', 'NONE');
#87 = DIRECTION ( 'NONE',  ( 0.0000000000000000000, 0.0000000000000000000, -1.000000000000000000 ) ) ;
#88 = CARTESIAN_POINT ( 'NONE',  ( -23.00000000000000000, 18.00000000000000000, 0.0000000000000000000 ) ) ;
#89 = EDGE_LOOP ( 'NONE', ( #92, #28, #9, #187 ) ) ;
#90 = APPLICATION_PROTOCOL_DEFINITION ( 'draft international standard', 'automotive_design', 1998, #154 ) ;
#91 = DIRECTION ( 'NONE',  ( -0.0000000000000000000, -1.000000000000000000, -0.0000000000000000000 ) ) ;
#92 = ORIENTED_EDGE ( 'NONE', *, *, #274, .F. ) ;
#93 = VECTOR ( 'NONE', #44, 1000.000000000000000 ) ;
#94 = CIRCLE ( 'NONE', #10, 23.00000000000000000 ) ;
#95 = ORIENTED_EDGE ( 'NONE', *, *, #26, .T. ) ;
#96 = MECHANICAL_DESIGN_GEOMETRIC_PRESENTATION_REPRESENTATION (  '', ( #144 ), #109 ) ;
#97 = ORIENTED_EDGE ( 'NONE', *, *, #13, .F. ) ;
#98 = DIRECTION ( 'NONE',  ( -0.0000000000000000000, -1.000000000000000000, -0.0000000000000000000 ) ) ;
#99 = STYLED_ITEM ( 'NONE', ( #197 ), #29 ) ;
#100 = VECTOR ( 'NONE', #166, 1000.000000000000000 ) ;
#101 = EDGE_CURVE ( 'NONE', #169, #211, #160, .T. ) ;
#102 = DIRECTION ( 'NONE',  ( 0.0000000000000000000, 0.0000000000000000000, -1.000000000000000000 ) ) ;
#103 = FACE_OUTER_BOUND ( 'NONE', #70, .T. ) ;
#104 = EDGE_LOOP ( 'NONE', ( #273, #198 ) ) ;
#105 = CARTESIAN_POINT ( 'NONE',  ( 0.0000000000000000000, 15.00000000000000000, -17.50000000000000400 ) ) ;
#106 = DIRECTION ( 'NONE',  ( 0.0000000000000000000, 0.0000000000000000000, -1.000000000000000000 ) ) ;
#107 = CIRCLE ( 'NONE', #170, 17.50000000000000400 ) ;
#108 = DIRECTION ( 'NONE',  ( 0.0000000000000000000, 0.0000000000000000000, -1.000000000000000000 ) ) ;
#109 =( GEOMETRIC_REPRESENTATION_CONTEXT ( 3 ) GLOBAL_UNCERTAINTY_ASSIGNED_CONTEXT ( ( #82 ) ) GLOBAL_UNIT_ASSIGNED_CONTEXT ( ( #200, #68, #227 ) ) REPRESENTATION_CONTEXT ( 'NONE', 'WORKASPACE' ) );
#110 = CARTESIAN_POINT ( 'NONE',  ( 0.0000000000000000000, 0.0000000000000000000, 0.0000000000000000000 ) ) ;
#111 = FACE_BOUND ( 'NONE', #2, .T. ) ;
#112 = ORIENTED_EDGE ( 'NONE', *, *, #52, .T. ) ;
#113 = PRESENTATION_LAYER_ASSIGNMENT (  '', '', ( #144 ) ) ;
#114 = CIRCLE ( 'NONE', #76, 20.00000000000000000 ) ;
#115 = UNCERTAINTY_MEASURE_WITH_UNIT (LENGTH_MEASURE( 1.000000000000000100E-005 ), #223, 'distance_accuracy_value', 'NONE');
#116 = ORIENTED_EDGE ( 'NONE', *, *, #274, .T. ) ;
#117 = CARTESIAN_POINT ( 'NONE',  ( 2.449293598294706500E-015, 0.0000000000000000000, 20.00000000000000000 ) ) ;
#118 = EDGE_CURVE ( 'NONE', #228, #218, #18, .T. ) ;
#119 = CARTESIAN_POINT ( 'NONE',  ( 0.0000000000000000000, 18.00000000000000000, 0.0000000000000000000 ) ) ;
#120 = FACE_OUTER_BOUND ( 'NONE', #141, .T. ) ;
#121 = SURFACE_SIDE_STYLE ('',( #260 ) ) ;
#122 = DIRECTION ( 'NONE',  ( -0.0000000000000000000, -1.000000000000000000, -0.0000000000000000000 ) ) ;
#123 = AXIS2_PLACEMENT_3D ( 'NONE', #266, #11, #240 ) ;
#124 = DIRECTION ( 'NONE',  ( -0.0000000000000000000, -1.000000000000000000, -0.0000000000000000000 ) ) ;
#125 = VERTEX_POINT ( 'NONE', #191 ) ;
#126 = CARTESIAN_POINT ( 'NONE',  ( 0.0000000000000000000, -3.061616997868386600E-016, 0.0000000000000000000 ) ) ;
#127 = EDGE_CURVE ( 'NONE', #83, #125, #43, .T. ) ;
#128 = CYLINDRICAL_SURFACE ( 'NONE', #4, 17.50000000000000400 ) ;
#129 = ORIENTED_EDGE ( 'NONE', *, *, #264, .F. ) ;
#130 = AXIS2_PLACEMENT_3D ( 'NONE', #119, #254, #212 ) ;
#131 =( NAMED_UNIT ( * ) PLANE_ANGLE_UNIT ( ) SI_UNIT ( $, .RADIAN. ) );
#132 = CARTESIAN_POINT ( 'NONE',  ( 0.0000000000000000000, 0.0000000000000000000, 0.0000000000000000000 ) ) ;
#133 = AXIS2_PLACEMENT_3D ( 'NONE', #171, #221, #149 ) ;
#134 = LINE ( 'NONE', #54, #100 ) ;
#135 = CLOSED_SHELL ( 'NONE', ( #179, #270, #231, #49, #251, #293, #158, #137, #249 ) ) ;
#136 = AXIS2_PLACEMENT_3D ( 'NONE', #263, #238, #220 ) ;
#137 = ADVANCED_FACE ( 'NONE', ( #111, #103 ), #282, .F. ) ;
#138 = DIRECTION ( 'NONE',  ( 1.000000000000000000, 0.0000000000000000000, 0.0000000000000000000 ) ) ;
#139 = ORIENTED_EDGE ( 'NONE', *, *, #101, .F. ) ;
#140 = PRODUCT ( 'Presse chapeau', 'Presse chapeau', '', ( #25 ) ) ;
#141 = EDGE_LOOP ( 'NONE', ( #248, #252 ) ) ;
#142 = PRODUCT_DEFINITION_FORMATION_WITH_SPECIFIED_SOURCE ( 'ANY', '', #140, .NOT_KNOWN. ) ;
#143 = PRESENTATION_LAYER_ASSIGNMENT (  '', '', ( #99 ) ) ;
#144 = STYLED_ITEM ( 'NONE', ( #32 ), #229 ) ;
#145 =( NAMED_UNIT ( * ) PLANE_ANGLE_UNIT ( ) SI_UNIT ( $, .RADIAN. ) );
#146 =( LENGTH_UNIT ( ) NAMED_UNIT ( * ) SI_UNIT ( .MILLI., .METRE. ) );
#147 = CYLINDRICAL_SURFACE ( 'NONE', #203, 23.00000000000000000 ) ;
#148 = EDGE_LOOP ( 'NONE', ( #15, #129, #58, #265 ) ) ;
#149 = DIRECTION ( 'NONE',  ( 0.0000000000000000000, 0.0000000000000000000, -1.000000000000000000 ) ) ;
#150 = CARTESIAN_POINT ( 'NONE',  ( 0.0000000000000000000, -3.061616997868386600E-016, -23.00000000000000000 ) ) ;
#151 = ORIENTED_EDGE ( 'NONE', *, *, #71, .T. ) ;
#152 = DIRECTION ( 'NONE',  ( 0.0000000000000000000, 0.0000000000000000000, -1.000000000000000000 ) ) ;
#153 = ORIENTED_EDGE ( 'NONE', *, *, #80, .T. ) ;
#154 = APPLICATION_CONTEXT ( 'automotive_design' ) ;
#155 = CARTESIAN_POINT ( 'NONE',  ( 0.0000000000000000000, 0.0000000000000000000, 0.0000000000000000000 ) ) ;
#156 = MECHANICAL_DESIGN_GEOMETRIC_PRESENTATION_REPRESENTATION (  '', ( #99 ), #253 ) ;
#157 = VERTEX_POINT ( 'NONE', #60 ) ;
#158 = ADVANCED_FACE ( 'NONE', ( #50 ), #40, .F. ) ;
#159 = LINE ( 'NONE', #257, #234 ) ;
#160 = CIRCLE ( 'NONE', #3, 17.50000000000000400 ) ;
#161 = ORIENTED_EDGE ( 'NONE', *, *, #22, .F. ) ;
#162 = FILL_AREA_STYLE_COLOUR ( '', #176 ) ;
#163 = DIRECTION ( 'NONE',  ( 0.0000000000000000000, 0.0000000000000000000, -1.000000000000000000 ) ) ;
#164 = CARTESIAN_POINT ( 'NONE',  ( -20.00000000000000000, -1.530808498934193300E-016, 0.0000000000000000000 ) ) ;
#165 = FACE_BOUND ( 'NONE', #1, .T. ) ;
#166 = DIRECTION ( 'NONE',  ( -0.0000000000000000000, -1.000000000000000000, -0.0000000000000000000 ) ) ;
#167 = DIRECTION ( 'NONE',  ( 0.0000000000000000000, 0.0000000000000000000, -1.000000000000000000 ) ) ;
#168 = CIRCLE ( 'NONE', #130, 17.50000000000000400 ) ;
#169 = VERTEX_POINT ( 'NONE', #105 ) ;
#170 = AXIS2_PLACEMENT_3D ( 'NONE', #79, #124, #102 ) ;
#171 = CARTESIAN_POINT ( 'NONE',  ( 0.0000000000000000000, 15.00000000000000000, 0.0000000000000000000 ) ) ;
#172 = CARTESIAN_POINT ( 'NONE',  ( 0.0000000000000000000, 0.0000000000000000000, 0.0000000000000000000 ) ) ;
#173 = DIRECTION ( 'NONE',  ( -0.0000000000000000000, -1.000000000000000000, -0.0000000000000000000 ) ) ;
#174 = FACE_OUTER_BOUND ( 'NONE', #202, .T. ) ;
#175 = CARTESIAN_POINT ( 'NONE',  ( 0.0000000000000000000, -3.061616997868386600E-016, 0.0000000000000000000 ) ) ;
#176 = COLOUR_RGB ( '',0.8980392156862745400, 0.9176470588235293700, 0.9294117647058823800 ) ;
#177 = DIRECTION ( 'NONE',  ( -0.0000000000000000000, -1.000000000000000000, -0.0000000000000000000 ) ) ;
#178 = ORIENTED_EDGE ( 'NONE', *, *, #250, .F. ) ;
#179 = ADVANCED_FACE ( 'NONE', ( #72 ), #57, .F. ) ;
#180 = AXIS2_PLACEMENT_3D ( 'NONE', #172, #78, #81 ) ;
#181 = VECTOR ( 'NONE', #186, 1000.000000000000000 ) ;
#182 = VERTEX_POINT ( 'NONE', #241 ) ;
#183 = DIRECTION ( 'NONE',  ( -0.0000000000000000000, -1.000000000000000000, -0.0000000000000000000 ) ) ;
#184 = FACE_OUTER_BOUND ( 'NONE', #104, .T. ) ;
#185 = CARTESIAN_POINT ( 'NONE',  ( 0.0000000000000000000, 18.00000000000000000, -23.00000000000000000 ) ) ;
#186 = DIRECTION ( 'NONE',  ( -0.0000000000000000000, -1.000000000000000000, -0.0000000000000000000 ) ) ;
#187 = ORIENTED_EDGE ( 'NONE', *, *, #256, .F. ) ;
#188 = AXIS2_PLACEMENT_3D ( 'NONE', #164, #280, #33 ) ;
#189 = DIRECTION ( 'NONE',  ( 0.0000000000000000000, 0.0000000000000000000, -1.000000000000000000 ) ) ;
#190 = DIRECTION ( 'NONE',  ( -0.0000000000000000000, -1.000000000000000000, -0.0000000000000000000 ) ) ;
#191 = CARTESIAN_POINT ( 'NONE',  ( 2.816687638038912400E-015, 18.00000000000000000, 23.00000000000000000 ) ) ;
#192 = COLOUR_RGB ( '',0.8980392156862745400, 0.9176470588235293700, 0.9294117647058823800 ) ;
#193 = ORIENTED_EDGE ( 'NONE', *, *, #232, .T. ) ;
#194 = CARTESIAN_POINT ( 'NONE',  ( 0.0000000000000000000, 0.0000000000000000000, 0.0000000000000000000 ) ) ;
#195 = CARTESIAN_POINT ( 'NONE',  ( 0.0000000000000000000, 0.0000000000000000000, 0.0000000000000000000 ) ) ;
#196 = DIRECTION ( 'NONE',  ( -0.0000000000000000000, -1.000000000000000000, -0.0000000000000000000 ) ) ;
#197 = PRESENTATION_STYLE_ASSIGNMENT (( #30 ) ) ;
#198 = ORIENTED_EDGE ( 'NONE', *, *, #55, .F. ) ;
#199 = AXIS2_PLACEMENT_3D ( 'NONE', #281, #12, #106 ) ;
#200 =( LENGTH_UNIT ( ) NAMED_UNIT ( * ) SI_UNIT ( .MILLI., .METRE. ) );
#201 = DIRECTION ( 'NONE',  ( 0.0000000000000000000, 0.0000000000000000000, 1.000000000000000000 ) ) ;
#202 = EDGE_LOOP ( 'NONE', ( #20, #193, #112, #73 ) ) ;
#203 = AXIS2_PLACEMENT_3D ( 'NONE', #195, #91, #152 ) ;
#204 = APPLICATION_CONTEXT ( 'automotive_design' ) ;
#205 = CIRCLE ( 'NONE', #63, 20.00000000000000400 ) ;
#206 = ORIENTED_EDGE ( 'NONE', *, *, #101, .T. ) ;
#207 = AXIS2_PLACEMENT_3D ( 'NONE', #56, #216, #189 ) ;
#208 = VERTEX_POINT ( 'NONE', #37 ) ;
#209 = CARTESIAN_POINT ( 'NONE',  ( 0.0000000000000000000, 15.00000000000000000, 0.0000000000000000000 ) ) ;
#210 = FACE_OUTER_BOUND ( 'NONE', #75, .T. ) ;
#211 = VERTEX_POINT ( 'NONE', #215 ) ;
#212 = DIRECTION ( 'NONE',  ( 0.0000000000000000000, 0.0000000000000000000, -1.000000000000000000 ) ) ;
#213 = CARTESIAN_POINT ( 'NONE',  ( 0.0000000000000000000, 15.00000000000000000, 0.0000000000000000000 ) ) ;
#214 = AXIS2_PLACEMENT_3D ( 'NONE', #194, #62, #291 ) ;
#215 = CARTESIAN_POINT ( 'NONE',  ( 2.143131898507868600E-015, 15.00000000000000000, 17.50000000000000400 ) ) ;
#216 = DIRECTION ( 'NONE',  ( -0.0000000000000000000, -1.000000000000000000, -0.0000000000000000000 ) ) ;
#217 = CIRCLE ( 'NONE', #133, 17.50000000000000400 ) ;
#218 = VERTEX_POINT ( 'NONE', #287 ) ;
#219 = AXIS2_PLACEMENT_3D ( 'NONE', #126, #262, #38 ) ;
#220 = DIRECTION ( 'NONE',  ( 0.0000000000000000000, 0.0000000000000000000, -1.000000000000000000 ) ) ;
#221 = DIRECTION ( 'NONE',  ( -0.0000000000000000000, -1.000000000000000000, -0.0000000000000000000 ) ) ;
#222 = AXIS2_PLACEMENT_3D ( 'NONE', #88, #244, #45 ) ;
#223 =( LENGTH_UNIT ( ) NAMED_UNIT ( * ) SI_UNIT ( .MILLI., .METRE. ) );
#224 = LINE ( 'NONE', #259, #66 ) ;
#225 = DIRECTION ( 'NONE',  ( 0.0000000000000000000, 0.0000000000000000000, -1.000000000000000000 ) ) ;
#226 = CARTESIAN_POINT ( 'NONE',  ( 2.816687638038912400E-015, 0.0000000000000000000, 23.00000000000000000 ) ) ;
#227 =( NAMED_UNIT ( * ) SI_UNIT ( $, .STERADIAN. ) SOLID_ANGLE_UNIT ( ) );
#228 = VERTEX_POINT ( 'NONE', #150 ) ;
#229 = ADVANCED_BREP_SHAPE_REPRESENTATION ( 'Presse chapeau', ( #29, #233 ), #288 ) ;
#230 = LINE ( 'NONE', #226, #23 ) ;
#231 = ADVANCED_FACE ( 'NONE', ( #210 ), #275, .T. ) ;
#232 = EDGE_CURVE ( 'NONE', #53, #211, #279, .T. ) ;
#233 = AXIS2_PLACEMENT_3D ( 'NONE', #110, #201, #138 ) ;
#234 = VECTOR ( 'NONE', #98, 1000.000000000000000 ) ;
#235 = ORIENTED_EDGE ( 'NONE', *, *, #6, .F. ) ;
#236 = FILL_AREA_STYLE ('',( #162 ) ) ;
#237 = CIRCLE ( 'NONE', #207, 23.00000000000000000 ) ;
#238 = DIRECTION ( 'NONE',  ( -0.0000000000000000000, -1.000000000000000000, -0.0000000000000000000 ) ) ;
#239 = ORIENTED_EDGE ( 'NONE', *, *, #283, .T. ) ;
#240 = DIRECTION ( 'NONE',  ( 0.0000000000000000000, -0.0000000000000000000, 1.000000000000000000 ) ) ;
#241 = CARTESIAN_POINT ( 'NONE',  ( 2.449293598294706900E-015, 15.00000000000000000, 20.00000000000000400 ) ) ;
#242 = LINE ( 'NONE', #84, #93 ) ;
#243 = EDGE_CURVE ( 'NONE', #48, #157, #246, .T. ) ;
#244 = DIRECTION ( 'NONE',  ( 0.0000000000000000000, -1.000000000000000000, -0.0000000000000000000 ) ) ;
#245 = CARTESIAN_POINT ( 'NONE',  ( 0.0000000000000000000, 15.00000000000000000, 0.0000000000000000000 ) ) ;
#246 = CIRCLE ( 'NONE', #36, 20.00000000000000000 ) ;
#247 = FILL_AREA_STYLE ('',( #19 ) ) ;
#248 = ORIENTED_EDGE ( 'NONE', *, *, #118, .T. ) ;
#249 = ADVANCED_FACE ( 'NONE', ( #285 ), #34, .F. ) ;
#250 = EDGE_CURVE ( 'NONE', #157, #48, #114, .T. ) ;
#251 = ADVANCED_FACE ( 'NONE', ( #268 ), #147, .T. ) ;
#252 = ORIENTED_EDGE ( 'NONE', *, *, #256, .T. ) ;
#253 =( GEOMETRIC_REPRESENTATION_CONTEXT ( 3 ) GLOBAL_UNCERTAINTY_ASSIGNED_CONTEXT ( ( #86 ) ) GLOBAL_UNIT_ASSIGNED_CONTEXT ( ( #146, #145, #8 ) ) REPRESENTATION_CONTEXT ( 'NONE', 'WORKASPACE' ) );
#254 = DIRECTION ( 'NONE',  ( -0.0000000000000000000, -1.000000000000000000, -0.0000000000000000000 ) ) ;
#255 = EDGE_LOOP ( 'NONE', ( #67, #286, #151, #206 ) ) ;
#256 = EDGE_CURVE ( 'NONE', #218, #228, #94, .T. ) ;
#257 = CARTESIAN_POINT ( 'NONE',  ( 0.0000000000000000000, 0.0000000000000000000, -23.00000000000000000 ) ) ;
#258 = PRODUCT_DEFINITION_CONTEXT ( 'detailed design', #204, 'design' ) ;
#259 = CARTESIAN_POINT ( 'NONE',  ( 0.0000000000000000000, 0.0000000000000000000, -20.00000000000000400 ) ) ;
#260 = SURFACE_STYLE_FILL_AREA ( #236 ) ;
#261 = EDGE_LOOP ( 'NONE', ( #95, #153 ) ) ;
#262 = DIRECTION ( 'NONE',  ( -0.0000000000000000000, -1.000000000000000000, -0.0000000000000000000 ) ) ;
#263 = CARTESIAN_POINT ( 'NONE',  ( 0.0000000000000000000, 0.0000000000000000000, 0.0000000000000000000 ) ) ;
#264 = EDGE_CURVE ( 'NONE', #208, #182, #205, .T. ) ;
#265 = ORIENTED_EDGE ( 'NONE', *, *, #250, .T. ) ;
#266 = CARTESIAN_POINT ( 'NONE',  ( -17.50000000000000400, 15.00000000000000000, 0.0000000000000000000 ) ) ;
#267 = DIRECTION ( 'NONE',  ( -0.0000000000000000000, -1.000000000000000000, -0.0000000000000000000 ) ) ;
#268 = FACE_OUTER_BOUND ( 'NONE', #89, .T. ) ;
#269 = ORIENTED_EDGE ( 'NONE', *, *, #243, .T. ) ;
#270 = ADVANCED_FACE ( 'NONE', ( #174 ), #128, .F. ) ;
#271 = DIRECTION ( 'NONE',  ( 0.0000000000000000000, 0.0000000000000000000, -1.000000000000000000 ) ) ;
#272 = APPLICATION_PROTOCOL_DEFINITION ( 'draft international standard', 'automotive_design', 1998, #204 ) ;
#273 = ORIENTED_EDGE ( 'NONE', *, *, #127, .F. ) ;
#274 = EDGE_CURVE ( 'NONE', #125, #218, #230, .T. ) ;
#275 = CYLINDRICAL_SURFACE ( 'NONE', #199, 23.00000000000000000 ) ;
#276 = ORIENTED_EDGE ( 'NONE', *, *, #52, .F. ) ;
#277 = ORIENTED_EDGE ( 'NONE', *, *, #243, .F. ) ;
#278 = AXIS2_PLACEMENT_3D ( 'NONE', #59, #284, #167 ) ;
#279 = LINE ( 'NONE', #14, #181 ) ;
#280 = DIRECTION ( 'NONE',  ( 0.0000000000000000000, 1.000000000000000000, 0.0000000000000000000 ) ) ;
#281 = CARTESIAN_POINT ( 'NONE',  ( 0.0000000000000000000, 0.0000000000000000000, 0.0000000000000000000 ) ) ;
#282 = PLANE ( 'NONE',  #123 ) ;
#283 = EDGE_CURVE ( 'NONE', #182, #48, #242, .T. ) ;
#284 = DIRECTION ( 'NONE',  ( -0.0000000000000000000, -1.000000000000000000, -0.0000000000000000000 ) ) ;
#285 = FACE_OUTER_BOUND ( 'NONE', #148, .T. ) ;
#286 = ORIENTED_EDGE ( 'NONE', *, *, #26, .F. ) ;
#287 = CARTESIAN_POINT ( 'NONE',  ( 2.816687638038912400E-015, -3.061616997868386600E-016, 23.00000000000000000 ) ) ;
#288 =( GEOMETRIC_REPRESENTATION_CONTEXT ( 3 ) GLOBAL_UNCERTAINTY_ASSIGNED_CONTEXT ( ( #115 ) ) GLOBAL_UNIT_ASSIGNED_CONTEXT ( ( #223, #131, #292 ) ) REPRESENTATION_CONTEXT ( 'NONE', 'WORKASPACE' ) );
#289 = CARTESIAN_POINT ( 'NONE',  ( 2.143131898507868600E-015, 18.00000000000000000, 17.50000000000000400 ) ) ;
#290 = CARTESIAN_POINT ( 'NONE',  ( 0.0000000000000000000, 0.0000000000000000000, 0.0000000000000000000 ) ) ;
#291 = DIRECTION ( 'NONE',  ( 0.0000000000000000000, 0.0000000000000000000, -1.000000000000000000 ) ) ;
#292 =( NAMED_UNIT ( * ) SI_UNIT ( $, .STERADIAN. ) SOLID_ANGLE_UNIT ( ) );
#293 = ADVANCED_FACE ( 'NONE', ( #184, #61 ), #46, .F. ) ;
#294 = SURFACE_SIDE_STYLE ('',( #27 ) ) ;
ENDSEC;
END-ISO-10303-21;
