ISO-10303-21;
HEADER;
FILE_DESCRIPTION(('CATIA V5 STEP Exchange'),'2;1');

FILE_NAME('C:\\Users\\flof5\\OneDrive\\Documents\\Simulafoot\\Nouvelle vague\\Prototypes\\Bordures petit.stp','2020-06-06T15:29:27+00:00',('none'),('none'),'CATIA Version 5 Release 21 GA (IN-10)','CATIA V5 STEP AP203','none');

FILE_SCHEMA(('CONFIG_CONTROL_DESIGN'));

ENDSEC;
/* file written by CATIA V5R21 */
DATA;
#5=PRODUCT('Part9','','',(#2)) ;
#1=APPLICATION_CONTEXT('configuration controlled 3D design of mechanical parts and assemblies') ;
#14=PRODUCT_DEFINITION('',' ',#6,#3) ;
#16=SECURITY_CLASSIFICATION(' ',' ',#15) ;
#15=SECURITY_CLASSIFICATION_LEVEL('unclassified') ;
#47=CARTESIAN_POINT(' ',(0.,0.,0.)) ;
#52=CARTESIAN_POINT('Axis2P3D Location',(-446.5,391.178443909,0.)) ;
#57=CARTESIAN_POINT('Line Origine',(-446.5,391.178443909,10.)) ;
#61=CARTESIAN_POINT('Vertex',(-446.5,391.178443909,0.)) ;
#63=CARTESIAN_POINT('Vertex',(-446.5,391.178443909,20.)) ;
#66=CARTESIAN_POINT('Line Origine',(-446.5,164.678443909,0.)) ;
#70=CARTESIAN_POINT('Vertex',(-446.5,-61.8215560913,0.)) ;
#73=CARTESIAN_POINT('Line Origine',(-446.5,-61.8215560913,10.)) ;
#77=CARTESIAN_POINT('Vertex',(-446.5,-61.8215560913,20.)) ;
#80=CARTESIAN_POINT('Line Origine',(-446.5,164.678443909,20.)) ;
#92=CARTESIAN_POINT('Axis2P3D Location',(187.5,-61.8215560913,0.)) ;
#97=CARTESIAN_POINT('Line Origine',(-129.5,-61.8215560913,0.)) ;
#101=CARTESIAN_POINT('Vertex',(187.5,-61.8215560913,0.)) ;
#104=CARTESIAN_POINT('Line Origine',(187.5,-61.8215560913,10.)) ;
#108=CARTESIAN_POINT('Vertex',(187.5,-61.8215560913,20.)) ;
#111=CARTESIAN_POINT('Line Origine',(-129.5,-61.8215560913,20.)) ;
#123=CARTESIAN_POINT('Axis2P3D Location',(187.5,-61.8215560913,0.)) ;
#128=CARTESIAN_POINT('Line Origine',(187.5,164.678443909,0.)) ;
#132=CARTESIAN_POINT('Vertex',(187.5,391.178443909,0.)) ;
#135=CARTESIAN_POINT('Line Origine',(187.5,391.178443909,10.)) ;
#139=CARTESIAN_POINT('Vertex',(187.5,391.178443909,20.)) ;
#142=CARTESIAN_POINT('Line Origine',(187.5,164.678443909,20.)) ;
#154=CARTESIAN_POINT('Axis2P3D Location',(-446.5,391.178443909,0.)) ;
#159=CARTESIAN_POINT('Line Origine',(-129.5,391.178443909,0.)) ;
#164=CARTESIAN_POINT('Line Origine',(-129.5,391.178443909,20.)) ;
#176=CARTESIAN_POINT('Axis2P3D Location',(-426.5,371.178443909,0.)) ;
#181=CARTESIAN_POINT('Line Origine',(-129.5,371.178443909,20.)) ;
#185=CARTESIAN_POINT('Vertex',(167.5,371.178443909,20.)) ;
#187=CARTESIAN_POINT('Vertex',(-426.5,371.178443909,20.)) ;
#190=CARTESIAN_POINT('Line Origine',(-426.5,371.178443909,10.)) ;
#194=CARTESIAN_POINT('Vertex',(-426.5,371.178443909,0.)) ;
#197=CARTESIAN_POINT('Line Origine',(-129.5,371.178443909,0.)) ;
#201=CARTESIAN_POINT('Vertex',(167.5,371.178443909,0.)) ;
#204=CARTESIAN_POINT('Line Origine',(167.5,371.178443909,10.)) ;
#216=CARTESIAN_POINT('Axis2P3D Location',(167.5,-41.8215560913,0.)) ;
#221=CARTESIAN_POINT('Line Origine',(167.5,164.678443909,20.)) ;
#225=CARTESIAN_POINT('Vertex',(167.5,-41.8215560913,20.)) ;
#228=CARTESIAN_POINT('Line Origine',(167.5,164.678443909,0.)) ;
#232=CARTESIAN_POINT('Vertex',(167.5,-41.8215560913,0.)) ;
#235=CARTESIAN_POINT('Line Origine',(167.5,-41.8215560913,10.)) ;
#247=CARTESIAN_POINT('Axis2P3D Location',(167.5,-41.8215560913,0.)) ;
#252=CARTESIAN_POINT('Line Origine',(-129.5,-41.8215560913,20.)) ;
#256=CARTESIAN_POINT('Vertex',(-426.5,-41.8215560913,20.)) ;
#259=CARTESIAN_POINT('Line Origine',(-129.5,-41.8215560913,0.)) ;
#263=CARTESIAN_POINT('Vertex',(-426.5,-41.8215560913,0.)) ;
#266=CARTESIAN_POINT('Line Origine',(-426.5,-41.8215560913,10.)) ;
#278=CARTESIAN_POINT('Axis2P3D Location',(-426.5,371.178443909,0.)) ;
#283=CARTESIAN_POINT('Line Origine',(-426.5,164.678443909,20.)) ;
#288=CARTESIAN_POINT('Line Origine',(-426.5,164.678443909,0.)) ;
#300=CARTESIAN_POINT('Axis2P3D Location',(0.,0.,0.)) ;
#318=CARTESIAN_POINT('Axis2P3D Location',(0.,0.,20.)) ;
#53=DIRECTION('Axis2P3D Direction',(-1.,0.,0.)) ;
#54=DIRECTION('Axis2P3D XDirection',(0.,-1.,0.)) ;
#58=DIRECTION('Vector Direction',(0.,0.,1.)) ;
#67=DIRECTION('Vector Direction',(0.,-1.,0.)) ;
#74=DIRECTION('Vector Direction',(0.,0.,1.)) ;
#81=DIRECTION('Vector Direction',(0.,-1.,0.)) ;
#93=DIRECTION('Axis2P3D Direction',(0.,1.,-0.)) ;
#94=DIRECTION('Axis2P3D XDirection',(-1.,0.,0.)) ;
#98=DIRECTION('Vector Direction',(-1.,0.,0.)) ;
#105=DIRECTION('Vector Direction',(0.,0.,1.)) ;
#112=DIRECTION('Vector Direction',(-1.,0.,0.)) ;
#124=DIRECTION('Axis2P3D Direction',(1.,0.,0.)) ;
#125=DIRECTION('Axis2P3D XDirection',(0.,1.,0.)) ;
#129=DIRECTION('Vector Direction',(0.,1.,0.)) ;
#136=DIRECTION('Vector Direction',(0.,0.,1.)) ;
#143=DIRECTION('Vector Direction',(0.,1.,0.)) ;
#155=DIRECTION('Axis2P3D Direction',(0.,-1.,0.)) ;
#156=DIRECTION('Axis2P3D XDirection',(1.,0.,0.)) ;
#160=DIRECTION('Vector Direction',(1.,0.,0.)) ;
#165=DIRECTION('Vector Direction',(1.,0.,0.)) ;
#177=DIRECTION('Axis2P3D Direction',(0.,-1.,0.)) ;
#178=DIRECTION('Axis2P3D XDirection',(1.,0.,0.)) ;
#182=DIRECTION('Vector Direction',(1.,0.,0.)) ;
#191=DIRECTION('Vector Direction',(0.,0.,1.)) ;
#198=DIRECTION('Vector Direction',(1.,0.,0.)) ;
#205=DIRECTION('Vector Direction',(0.,0.,1.)) ;
#217=DIRECTION('Axis2P3D Direction',(1.,0.,0.)) ;
#218=DIRECTION('Axis2P3D XDirection',(0.,1.,0.)) ;
#222=DIRECTION('Vector Direction',(0.,1.,0.)) ;
#229=DIRECTION('Vector Direction',(0.,1.,0.)) ;
#236=DIRECTION('Vector Direction',(0.,0.,1.)) ;
#248=DIRECTION('Axis2P3D Direction',(0.,1.,-0.)) ;
#249=DIRECTION('Axis2P3D XDirection',(-1.,0.,0.)) ;
#253=DIRECTION('Vector Direction',(-1.,0.,0.)) ;
#260=DIRECTION('Vector Direction',(-1.,0.,0.)) ;
#267=DIRECTION('Vector Direction',(0.,0.,1.)) ;
#279=DIRECTION('Axis2P3D Direction',(-1.,0.,0.)) ;
#280=DIRECTION('Axis2P3D XDirection',(0.,-1.,0.)) ;
#284=DIRECTION('Vector Direction',(0.,-1.,0.)) ;
#289=DIRECTION('Vector Direction',(0.,-1.,0.)) ;
#301=DIRECTION('Axis2P3D Direction',(0.,0.,1.)) ;
#302=DIRECTION('Axis2P3D XDirection',(1.,0.,0.)) ;
#319=DIRECTION('Axis2P3D Direction',(0.,0.,1.)) ;
#320=DIRECTION('Axis2P3D XDirection',(1.,0.,0.)) ;
#48=AXIS2_PLACEMENT_3D(' ',#47,$,$) ;
#55=AXIS2_PLACEMENT_3D('Plane Axis2P3D',#52,#53,#54) ;
#95=AXIS2_PLACEMENT_3D('Plane Axis2P3D',#92,#93,#94) ;
#126=AXIS2_PLACEMENT_3D('Plane Axis2P3D',#123,#124,#125) ;
#157=AXIS2_PLACEMENT_3D('Plane Axis2P3D',#154,#155,#156) ;
#179=AXIS2_PLACEMENT_3D('Plane Axis2P3D',#176,#177,#178) ;
#219=AXIS2_PLACEMENT_3D('Plane Axis2P3D',#216,#217,#218) ;
#250=AXIS2_PLACEMENT_3D('Plane Axis2P3D',#247,#248,#249) ;
#281=AXIS2_PLACEMENT_3D('Plane Axis2P3D',#278,#279,#280) ;
#303=AXIS2_PLACEMENT_3D('Plane Axis2P3D',#300,#301,#302) ;
#321=AXIS2_PLACEMENT_3D('Plane Axis2P3D',#318,#319,#320) ;
#40=PRODUCT_DEFINITION_SHAPE(' ',' ',#14) ;
#31=APPROVAL_PERSON_ORGANIZATION(#25,#21,#19) ;
#25=PERSON_AND_ORGANIZATION(#22,#23) ;
#22=PERSON(' ',' ',' ',$,$,$) ;
#23=ORGANIZATION(' ',' ',' ') ;
#21=APPROVAL(#20,' ') ;
#20=APPROVAL_STATUS('not_yet_approved') ;
#19=APPROVAL_ROLE('APPROVER') ;
#13=DATE_AND_TIME(#11,#12) ;
#12=LOCAL_TIME(17,29,27.,#10) ;
#10=COORDINATED_UNIVERSAL_TIME_OFFSET(0,0,.AHEAD.) ;
#86=ORIENTED_EDGE('',*,*,#65,.F.) ;
#87=ORIENTED_EDGE('',*,*,#72,.T.) ;
#88=ORIENTED_EDGE('',*,*,#79,.T.) ;
#89=ORIENTED_EDGE('',*,*,#84,.F.) ;
#117=ORIENTED_EDGE('',*,*,#79,.F.) ;
#118=ORIENTED_EDGE('',*,*,#103,.T.) ;
#119=ORIENTED_EDGE('',*,*,#110,.T.) ;
#120=ORIENTED_EDGE('',*,*,#115,.F.) ;
#148=ORIENTED_EDGE('',*,*,#110,.F.) ;
#149=ORIENTED_EDGE('',*,*,#134,.T.) ;
#150=ORIENTED_EDGE('',*,*,#141,.T.) ;
#151=ORIENTED_EDGE('',*,*,#146,.F.) ;
#170=ORIENTED_EDGE('',*,*,#141,.F.) ;
#171=ORIENTED_EDGE('',*,*,#163,.T.) ;
#172=ORIENTED_EDGE('',*,*,#65,.T.) ;
#173=ORIENTED_EDGE('',*,*,#168,.F.) ;
#210=ORIENTED_EDGE('',*,*,#189,.T.) ;
#211=ORIENTED_EDGE('',*,*,#196,.F.) ;
#212=ORIENTED_EDGE('',*,*,#203,.F.) ;
#213=ORIENTED_EDGE('',*,*,#208,.T.) ;
#241=ORIENTED_EDGE('',*,*,#227,.T.) ;
#242=ORIENTED_EDGE('',*,*,#208,.F.) ;
#243=ORIENTED_EDGE('',*,*,#234,.F.) ;
#244=ORIENTED_EDGE('',*,*,#239,.T.) ;
#272=ORIENTED_EDGE('',*,*,#258,.T.) ;
#273=ORIENTED_EDGE('',*,*,#239,.F.) ;
#274=ORIENTED_EDGE('',*,*,#265,.F.) ;
#275=ORIENTED_EDGE('',*,*,#270,.T.) ;
#294=ORIENTED_EDGE('',*,*,#287,.T.) ;
#295=ORIENTED_EDGE('',*,*,#270,.F.) ;
#296=ORIENTED_EDGE('',*,*,#292,.F.) ;
#297=ORIENTED_EDGE('',*,*,#196,.T.) ;
#306=ORIENTED_EDGE('',*,*,#163,.F.) ;
#307=ORIENTED_EDGE('',*,*,#134,.F.) ;
#308=ORIENTED_EDGE('',*,*,#103,.F.) ;
#309=ORIENTED_EDGE('',*,*,#72,.F.) ;
#312=ORIENTED_EDGE('',*,*,#292,.T.) ;
#313=ORIENTED_EDGE('',*,*,#265,.T.) ;
#314=ORIENTED_EDGE('',*,*,#234,.T.) ;
#315=ORIENTED_EDGE('',*,*,#203,.T.) ;
#324=ORIENTED_EDGE('',*,*,#84,.T.) ;
#325=ORIENTED_EDGE('',*,*,#115,.T.) ;
#326=ORIENTED_EDGE('',*,*,#146,.T.) ;
#327=ORIENTED_EDGE('',*,*,#168,.T.) ;
#330=ORIENTED_EDGE('',*,*,#189,.F.) ;
#331=ORIENTED_EDGE('',*,*,#227,.F.) ;
#332=ORIENTED_EDGE('',*,*,#258,.F.) ;
#333=ORIENTED_EDGE('',*,*,#287,.F.) ;
#316=FACE_BOUND('',#311,.T.) ;
#334=FACE_BOUND('',#329,.T.) ;
#51=CLOSED_SHELL('Closed Shell',(#91,#122,#153,#175,#215,#246,#277,#299,#317,#335)) ;
#59=VECTOR('Line Direction',#58,1.) ;
#68=VECTOR('Line Direction',#67,1.) ;
#75=VECTOR('Line Direction',#74,1.) ;
#82=VECTOR('Line Direction',#81,1.) ;
#99=VECTOR('Line Direction',#98,1.) ;
#106=VECTOR('Line Direction',#105,1.) ;
#113=VECTOR('Line Direction',#112,1.) ;
#130=VECTOR('Line Direction',#129,1.) ;
#137=VECTOR('Line Direction',#136,1.) ;
#144=VECTOR('Line Direction',#143,1.) ;
#161=VECTOR('Line Direction',#160,1.) ;
#166=VECTOR('Line Direction',#165,1.) ;
#183=VECTOR('Line Direction',#182,1.) ;
#192=VECTOR('Line Direction',#191,1.) ;
#199=VECTOR('Line Direction',#198,1.) ;
#206=VECTOR('Line Direction',#205,1.) ;
#223=VECTOR('Line Direction',#222,1.) ;
#230=VECTOR('Line Direction',#229,1.) ;
#237=VECTOR('Line Direction',#236,1.) ;
#254=VECTOR('Line Direction',#253,1.) ;
#261=VECTOR('Line Direction',#260,1.) ;
#268=VECTOR('Line Direction',#267,1.) ;
#285=VECTOR('Line Direction',#284,1.) ;
#290=VECTOR('Line Direction',#289,1.) ;
#337=ADVANCED_BREP_SHAPE_REPRESENTATION('NONE',(#336),#46) ;
#49=SHAPE_REPRESENTATION(' ',(#48),#46) ;
#91=ADVANCED_FACE('Corps principal',(#90),#56,.T.) ;
#122=ADVANCED_FACE('Corps principal',(#121),#96,.F.) ;
#153=ADVANCED_FACE('Corps principal',(#152),#127,.T.) ;
#175=ADVANCED_FACE('Corps principal',(#174),#158,.F.) ;
#215=ADVANCED_FACE('Corps principal',(#214),#180,.T.) ;
#246=ADVANCED_FACE('Corps principal',(#245),#220,.F.) ;
#277=ADVANCED_FACE('Corps principal',(#276),#251,.T.) ;
#299=ADVANCED_FACE('Corps principal',(#298),#282,.F.) ;
#317=ADVANCED_FACE('Corps principal',(#310,#316),#304,.F.) ;
#335=ADVANCED_FACE('Corps principal',(#328,#334),#322,.T.) ;
#4=APPLICATION_PROTOCOL_DEFINITION('international standard','config_control_design',1994,#1) ;
#32=APPROVAL_DATE_TIME(#13,#21) ;
#336=MANIFOLD_SOLID_BREP('Corps principal',#51) ;
#11=CALENDAR_DATE(2020,6,6) ;
#30=CC_DESIGN_APPROVAL(#21,(#16,#6,#14)) ;
#18=CC_DESIGN_DATE_AND_TIME_ASSIGNMENT(#13,#17,(#16)) ;
#29=CC_DESIGN_DATE_AND_TIME_ASSIGNMENT(#13,#28,(#14)) ;
#17=DATE_TIME_ROLE('classification_date') ;
#28=DATE_TIME_ROLE('creation_date') ;
#27=CC_DESIGN_PERSON_AND_ORGANIZATION_ASSIGNMENT(#25,#26,(#16)) ;
#33=CC_DESIGN_PERSON_AND_ORGANIZATION_ASSIGNMENT(#25,#34,(#6)) ;
#35=CC_DESIGN_PERSON_AND_ORGANIZATION_ASSIGNMENT(#25,#36,(#6,#14)) ;
#37=CC_DESIGN_PERSON_AND_ORGANIZATION_ASSIGNMENT(#25,#38,(#5)) ;
#26=PERSON_AND_ORGANIZATION_ROLE('classification_officer') ;
#34=PERSON_AND_ORGANIZATION_ROLE('design_supplier') ;
#36=PERSON_AND_ORGANIZATION_ROLE('creator') ;
#38=PERSON_AND_ORGANIZATION_ROLE('design_owner') ;
#39=CC_DESIGN_SECURITY_CLASSIFICATION(#16,(#6)) ;
#338=SHAPE_REPRESENTATION_RELATIONSHIP(' ',' ',#49,#337) ;
#3=DESIGN_CONTEXT(' ',#1,'design') ;
#65=EDGE_CURVE('',#62,#64,#60,.T.) ;
#72=EDGE_CURVE('',#62,#71,#69,.T.) ;
#79=EDGE_CURVE('',#71,#78,#76,.T.) ;
#84=EDGE_CURVE('',#64,#78,#83,.T.) ;
#103=EDGE_CURVE('',#71,#102,#100,.F.) ;
#110=EDGE_CURVE('',#102,#109,#107,.T.) ;
#115=EDGE_CURVE('',#78,#109,#114,.F.) ;
#134=EDGE_CURVE('',#102,#133,#131,.T.) ;
#141=EDGE_CURVE('',#133,#140,#138,.T.) ;
#146=EDGE_CURVE('',#109,#140,#145,.T.) ;
#163=EDGE_CURVE('',#133,#62,#162,.F.) ;
#168=EDGE_CURVE('',#140,#64,#167,.F.) ;
#189=EDGE_CURVE('',#186,#188,#184,.F.) ;
#196=EDGE_CURVE('',#195,#188,#193,.T.) ;
#203=EDGE_CURVE('',#202,#195,#200,.F.) ;
#208=EDGE_CURVE('',#202,#186,#207,.T.) ;
#227=EDGE_CURVE('',#226,#186,#224,.T.) ;
#234=EDGE_CURVE('',#233,#202,#231,.T.) ;
#239=EDGE_CURVE('',#233,#226,#238,.T.) ;
#258=EDGE_CURVE('',#257,#226,#255,.F.) ;
#265=EDGE_CURVE('',#264,#233,#262,.F.) ;
#270=EDGE_CURVE('',#264,#257,#269,.T.) ;
#287=EDGE_CURVE('',#188,#257,#286,.T.) ;
#292=EDGE_CURVE('',#195,#264,#291,.T.) ;
#85=EDGE_LOOP('',(#86,#87,#88,#89)) ;
#116=EDGE_LOOP('',(#117,#118,#119,#120)) ;
#147=EDGE_LOOP('',(#148,#149,#150,#151)) ;
#169=EDGE_LOOP('',(#170,#171,#172,#173)) ;
#209=EDGE_LOOP('',(#210,#211,#212,#213)) ;
#240=EDGE_LOOP('',(#241,#242,#243,#244)) ;
#271=EDGE_LOOP('',(#272,#273,#274,#275)) ;
#293=EDGE_LOOP('',(#294,#295,#296,#297)) ;
#305=EDGE_LOOP('',(#306,#307,#308,#309)) ;
#311=EDGE_LOOP('',(#312,#313,#314,#315)) ;
#323=EDGE_LOOP('',(#324,#325,#326,#327)) ;
#329=EDGE_LOOP('',(#330,#331,#332,#333)) ;
#90=FACE_OUTER_BOUND('',#85,.T.) ;
#121=FACE_OUTER_BOUND('',#116,.T.) ;
#152=FACE_OUTER_BOUND('',#147,.T.) ;
#174=FACE_OUTER_BOUND('',#169,.T.) ;
#214=FACE_OUTER_BOUND('',#209,.T.) ;
#245=FACE_OUTER_BOUND('',#240,.T.) ;
#276=FACE_OUTER_BOUND('',#271,.T.) ;
#298=FACE_OUTER_BOUND('',#293,.T.) ;
#310=FACE_OUTER_BOUND('',#305,.T.) ;
#328=FACE_OUTER_BOUND('',#323,.T.) ;
#45=UNCERTAINTY_MEASURE_WITH_UNIT(LENGTH_MEASURE(0.005),#41,'distance_accuracy_value','CONFUSED CURVE UNCERTAINTY') ;
#60=LINE('Line',#57,#59) ;
#69=LINE('Line',#66,#68) ;
#76=LINE('Line',#73,#75) ;
#83=LINE('Line',#80,#82) ;
#100=LINE('Line',#97,#99) ;
#107=LINE('Line',#104,#106) ;
#114=LINE('Line',#111,#113) ;
#131=LINE('Line',#128,#130) ;
#138=LINE('Line',#135,#137) ;
#145=LINE('Line',#142,#144) ;
#162=LINE('Line',#159,#161) ;
#167=LINE('Line',#164,#166) ;
#184=LINE('Line',#181,#183) ;
#193=LINE('Line',#190,#192) ;
#200=LINE('Line',#197,#199) ;
#207=LINE('Line',#204,#206) ;
#224=LINE('Line',#221,#223) ;
#231=LINE('Line',#228,#230) ;
#238=LINE('Line',#235,#237) ;
#255=LINE('Line',#252,#254) ;
#262=LINE('Line',#259,#261) ;
#269=LINE('Line',#266,#268) ;
#286=LINE('Line',#283,#285) ;
#291=LINE('Line',#288,#290) ;
#2=MECHANICAL_CONTEXT(' ',#1,'mechanical') ;
#24=PERSONAL_ADDRESS(' ',' ',' ',' ',' ',' ',' ',' ',' ',' ',' ',' ',(#22),' ') ;
#56=PLANE('',#55) ;
#96=PLANE('',#95) ;
#127=PLANE('',#126) ;
#158=PLANE('',#157) ;
#180=PLANE('',#179) ;
#220=PLANE('',#219) ;
#251=PLANE('',#250) ;
#282=PLANE('',#281) ;
#304=PLANE('',#303) ;
#322=PLANE('',#321) ;
#43=PLANE_ANGLE_MEASURE_WITH_UNIT(PLANE_ANGLE_MEASURE(0.0174532925199),#42) ;
#7=PRODUCT_CATEGORY('part',$) ;
#9=PRODUCT_CATEGORY_RELATIONSHIP(' ',' ',#7,#8) ;
#6=PRODUCT_DEFINITION_FORMATION_WITH_SPECIFIED_SOURCE('',' ',#5,.NOT_KNOWN.) ;
#8=PRODUCT_RELATED_PRODUCT_CATEGORY('detail',$,(#5)) ;
#50=SHAPE_DEFINITION_REPRESENTATION(#40,#49) ;
#62=VERTEX_POINT('',#61) ;
#64=VERTEX_POINT('',#63) ;
#71=VERTEX_POINT('',#70) ;
#78=VERTEX_POINT('',#77) ;
#102=VERTEX_POINT('',#101) ;
#109=VERTEX_POINT('',#108) ;
#133=VERTEX_POINT('',#132) ;
#140=VERTEX_POINT('',#139) ;
#186=VERTEX_POINT('',#185) ;
#188=VERTEX_POINT('',#187) ;
#195=VERTEX_POINT('',#194) ;
#202=VERTEX_POINT('',#201) ;
#226=VERTEX_POINT('',#225) ;
#233=VERTEX_POINT('',#232) ;
#257=VERTEX_POINT('',#256) ;
#264=VERTEX_POINT('',#263) ;
#41=(LENGTH_UNIT()NAMED_UNIT(*)SI_UNIT(.MILLI.,.METRE.)) ;
#42=(NAMED_UNIT(*)PLANE_ANGLE_UNIT()SI_UNIT($,.RADIAN.)) ;
#44=(NAMED_UNIT(*)SI_UNIT($,.STERADIAN.)SOLID_ANGLE_UNIT()) ;
#46=(GEOMETRIC_REPRESENTATION_CONTEXT(3)GLOBAL_UNCERTAINTY_ASSIGNED_CONTEXT((#45))GLOBAL_UNIT_ASSIGNED_CONTEXT((#41,#42,#44))REPRESENTATION_CONTEXT(' ',' ')) ;
ENDSEC;
END-ISO-10303-21;
