ISO-10303-21;
HEADER;
FILE_DESCRIPTION(('CATIA V5 STEP Exchange'),'2;1');

FILE_NAME('C:\\Users\\yanni\\Documents\\Budget\\Habitation\\Cloture\\MaquetteNum\\EquerreV2.stp','2020-07-07T22:31:06+00:00',('none'),('none'),'Version 5-6 Release 2013','CATIA V5 STEP AP203','none');

FILE_SCHEMA(('CONFIG_CONTROL_DESIGN'));

ENDSEC;
DATA;
#5=PRODUCT('Equerre','','',(#2)) ;
#1=APPLICATION_CONTEXT('configuration controlled 3D design of mechanical parts and assemblies') ;
#14=PRODUCT_DEFINITION('',' ',#6,#3) ;
#16=SECURITY_CLASSIFICATION(' ',' ',#15) ;
#15=SECURITY_CLASSIFICATION_LEVEL('unclassified') ;
#46=CARTESIAN_POINT(' ',(0.,0.,0.)) ;
#51=CARTESIAN_POINT('Axis2P3D Location',(35.,0.,0.)) ;
#56=CARTESIAN_POINT('Line Origine',(35.,45.,0.)) ;
#60=CARTESIAN_POINT('Vertex',(35.,0.,0.)) ;
#62=CARTESIAN_POINT('Vertex',(35.,90.,0.)) ;
#65=CARTESIAN_POINT('Axis2P3D Location',(35.,85.,1.7763568394E-015)) ;
#69=CARTESIAN_POINT('Vertex',(35.,85.,5.)) ;
#72=CARTESIAN_POINT('Line Origine',(35.,60.,5.)) ;
#76=CARTESIAN_POINT('Vertex',(35.,35.,5.)) ;
#79=CARTESIAN_POINT('Axis2P3D Location',(35.,35.,35.)) ;
#83=CARTESIAN_POINT('Vertex',(35.,12.639320225,15.)) ;
#86=CARTESIAN_POINT('Line Origine',(35.,6.3196601125,15.)) ;
#90=CARTESIAN_POINT('Vertex',(35.,0.,15.)) ;
#93=CARTESIAN_POINT('Line Origine',(35.,0.,7.5)) ;
#107=CARTESIAN_POINT('Axis2P3D Location',(20.,0.,15.)) ;
#112=CARTESIAN_POINT('Line Origine',(27.5,12.639320225,15.)) ;
#116=CARTESIAN_POINT('Vertex',(20.,12.639320225,15.)) ;
#119=CARTESIAN_POINT('Line Origine',(20.,6.3196601125,15.)) ;
#123=CARTESIAN_POINT('Vertex',(20.,0.,15.)) ;
#126=CARTESIAN_POINT('Line Origine',(27.5,0.,15.)) ;
#138=CARTESIAN_POINT('Axis2P3D Location',(4.4408920985E-016,5.,60.)) ;
#143=CARTESIAN_POINT('Line Origine',(-5.26549537134,45.,57.1234467684)) ;
#147=CARTESIAN_POINT('Vertex',(-5.26549537134,0.,57.1234467684)) ;
#149=CARTESIAN_POINT('Vertex',(-5.26549537134,5.,57.1234467684)) ;
#152=CARTESIAN_POINT('Axis2P3D Location',(4.4408920985E-016,0.,60.)) ;
#156=CARTESIAN_POINT('Vertex',(5.26549537134,0.,62.8765532316)) ;
#159=CARTESIAN_POINT('Line Origine',(5.26549537134,45.,62.8765532316)) ;
#163=CARTESIAN_POINT('Vertex',(5.26549537134,5.,62.8765532316)) ;
#166=CARTESIAN_POINT('Axis2P3D Location',(4.4408920985E-016,5.,60.)) ;
#178=CARTESIAN_POINT('Axis2P3D Location',(0.,5.,5.)) ;
#183=CARTESIAN_POINT('Line Origine',(2.5,5.,175.)) ;
#187=CARTESIAN_POINT('Vertex',(-15.,5.,175.)) ;
#189=CARTESIAN_POINT('Vertex',(20.,5.,175.)) ;
#192=CARTESIAN_POINT('Line Origine',(20.,5.,105.)) ;
#196=CARTESIAN_POINT('Vertex',(20.,5.,35.)) ;
#199=CARTESIAN_POINT('Line Origine',(2.5,5.,35.)) ;
#203=CARTESIAN_POINT('Vertex',(-15.,5.,35.)) ;
#206=CARTESIAN_POINT('Line Origine',(-15.,5.,105.)) ;
#217=CARTESIAN_POINT('Axis2P3D Location',(1.33226762955E-015,5.,150.)) ;
#221=CARTESIAN_POINT('Vertex',(5.26549537134,5.,152.876553232)) ;
#223=CARTESIAN_POINT('Vertex',(-5.26549537134,5.,147.123446768)) ;
#226=CARTESIAN_POINT('Axis2P3D Location',(-1.11022302463E-015,5.,150.)) ;
#235=CARTESIAN_POINT('Axis2P3D Location',(-1.11022302463E-015,5.,60.)) ;
#245=CARTESIAN_POINT('Axis2P3D Location',(4.4408920985E-016,0.,60.)) ;
#257=CARTESIAN_POINT('Axis2P3D Location',(0.,8.881784197E-016,175.)) ;
#262=CARTESIAN_POINT('Axis2P3D Location',(-20.,8.881784197E-016,175.)) ;
#266=CARTESIAN_POINT('Vertex',(-20.,4.49752949637,177.184543071)) ;
#268=CARTESIAN_POINT('Vertex',(-20.,0.,180.)) ;
#271=CARTESIAN_POINT('Line Origine',(0.,2.11282521885E-015,180.)) ;
#275=CARTESIAN_POINT('Vertex',(20.,0.,180.)) ;
#278=CARTESIAN_POINT('Axis2P3D Location',(20.,8.881784197E-016,175.)) ;
#283=CARTESIAN_POINT('Axis2P3D Location',(-15.,8.881784197E-016,175.)) ;
#287=CARTESIAN_POINT('Vertex',(-15.,4.49752949637,177.184543071)) ;
#290=CARTESIAN_POINT('Line Origine',(0.,4.49752949631,177.184543071)) ;
#304=CARTESIAN_POINT('Axis2P3D Location',(20.,0.,0.)) ;
#309=CARTESIAN_POINT('Axis2P3D Location',(20.,35.,35.)) ;
#314=CARTESIAN_POINT('Line Origine',(20.,0.,97.5)) ;
#327=CARTESIAN_POINT('Axis2P3D Location',(-15.,0.,0.)) ;
#332=CARTESIAN_POINT('Axis2P3D Location',(-15.,35.,35.)) ;
#336=CARTESIAN_POINT('Vertex',(-15.,35.,5.)) ;
#339=CARTESIAN_POINT('Line Origine',(-15.,60.,5.)) ;
#343=CARTESIAN_POINT('Vertex',(-15.,85.,5.)) ;
#346=CARTESIAN_POINT('Axis2P3D Location',(-15.,85.,-4.88498130835E-015)) ;
#350=CARTESIAN_POINT('Vertex',(-15.,89.4975324713,2.18453694626)) ;
#353=CARTESIAN_POINT('Line Origine',(-15.,46.9975309839,89.6845400087)) ;
#367=CARTESIAN_POINT('Axis2P3D Location',(4.4408920985E-016,5.,150.)) ;
#372=CARTESIAN_POINT('Line Origine',(-5.26549537134,45.,147.123446768)) ;
#376=CARTESIAN_POINT('Vertex',(-5.26549537134,0.,147.123446768)) ;
#379=CARTESIAN_POINT('Axis2P3D Location',(4.4408920985E-016,0.,150.)) ;
#383=CARTESIAN_POINT('Vertex',(5.26549537134,0.,152.876553232)) ;
#386=CARTESIAN_POINT('Line Origine',(5.26549537134,45.,152.876553232)) ;
#398=CARTESIAN_POINT('Axis2P3D Location',(4.4408920985E-016,0.,150.)) ;
#410=CARTESIAN_POINT('Axis2P3D Location',(-20.,0.,0.)) ;
#415=CARTESIAN_POINT('Axis2P3D Location',(-20.,85.,1.7763568394E-015)) ;
#419=CARTESIAN_POINT('Vertex',(-20.,90.,5.51710040253E-016)) ;
#421=CARTESIAN_POINT('Vertex',(-20.,89.4975324713,2.18453694626)) ;
#424=CARTESIAN_POINT('Line Origine',(-20.,45.,0.)) ;
#428=CARTESIAN_POINT('Vertex',(-20.,0.,0.)) ;
#431=CARTESIAN_POINT('Line Origine',(-20.,0.,90.)) ;
#436=CARTESIAN_POINT('Line Origine',(-20.,46.9975309839,89.6845400087)) ;
#449=CARTESIAN_POINT('Axis2P3D Location',(-20.,4.49752949637,177.184543071)) ;
#454=CARTESIAN_POINT('Line Origine',(-17.5,89.4975324713,2.18453694628)) ;
#466=CARTESIAN_POINT('Axis2P3D Location',(-2.22044604925E-016,60.,5.)) ;
#471=CARTESIAN_POINT('Line Origine',(5.26549537134,57.1234467684,90.)) ;
#475=CARTESIAN_POINT('Vertex',(5.26549537134,57.1234467684,8.881784197E-016)) ;
#477=CARTESIAN_POINT('Vertex',(5.26549537134,57.1234467684,5.)) ;
#480=CARTESIAN_POINT('Axis2P3D Location',(-2.22044604925E-016,60.,0.)) ;
#484=CARTESIAN_POINT('Vertex',(-5.26549537134,62.8765532316,8.881784197E-016)) ;
#487=CARTESIAN_POINT('Line Origine',(-5.26549537134,62.8765532316,90.)) ;
#491=CARTESIAN_POINT('Vertex',(-5.26549537134,62.8765532316,5.)) ;
#494=CARTESIAN_POINT('Axis2P3D Location',(-2.22044604925E-016,60.,5.)) ;
#506=CARTESIAN_POINT('Axis2P3D Location',(-2.22044604925E-016,60.,0.)) ;
#511=CARTESIAN_POINT('Axis2P3D Location',(-2.22044604925E-016,60.,5.)) ;
#523=CARTESIAN_POINT('Axis2P3D Location',(0.,90.,5.)) ;
#528=CARTESIAN_POINT('Line Origine',(10.,85.,5.)) ;
#533=CARTESIAN_POINT('Line Origine',(10.,35.,5.)) ;
#549=CARTESIAN_POINT('Axis2P3D Location',(27.5,35.,35.)) ;
#563=CARTESIAN_POINT('Axis2P3D Location',(27.5,85.,1.7763568394E-015)) ;
#568=CARTESIAN_POINT('Line Origine',(27.5,90.,1.7763568394E-015)) ;
#582=CARTESIAN_POINT('Axis2P3D Location',(0.,0.,180.)) ;
#587=CARTESIAN_POINT('Line Origine',(7.5,0.,0.)) ;
#609=CARTESIAN_POINT('Axis2P3D Location',(0.,0.,0.)) ;
#52=DIRECTION('Axis2P3D Direction',(1.,0.,0.)) ;
#53=DIRECTION('Axis2P3D XDirection',(0.,1.,0.)) ;
#57=DIRECTION('Vector Direction',(0.,1.,0.)) ;
#66=DIRECTION('Axis2P3D Direction',(1.,0.,0.)) ;
#73=DIRECTION('Vector Direction',(0.,-1.,0.)) ;
#80=DIRECTION('Axis2P3D Direction',(1.,0.,0.)) ;
#87=DIRECTION('Vector Direction',(0.,1.,0.)) ;
#94=DIRECTION('Vector Direction',(0.,0.,-1.)) ;
#108=DIRECTION('Axis2P3D Direction',(0.,0.,-1.)) ;
#109=DIRECTION('Axis2P3D XDirection',(0.,1.,0.)) ;
#113=DIRECTION('Vector Direction',(1.,0.,0.)) ;
#120=DIRECTION('Vector Direction',(0.,1.,0.)) ;
#127=DIRECTION('Vector Direction',(1.,0.,0.)) ;
#139=DIRECTION('Axis2P3D Direction',(0.,-1.,-0.)) ;
#140=DIRECTION('Axis2P3D XDirection',(0.87758256189,0.,0.479425538604)) ;
#144=DIRECTION('Vector Direction',(0.,-1.,0.)) ;
#153=DIRECTION('Axis2P3D Direction',(0.,-1.,-0.)) ;
#160=DIRECTION('Vector Direction',(0.,-1.,0.)) ;
#167=DIRECTION('Axis2P3D Direction',(0.,-1.,-0.)) ;
#179=DIRECTION('Axis2P3D Direction',(0.,1.,0.)) ;
#180=DIRECTION('Axis2P3D XDirection',(0.,0.,1.)) ;
#184=DIRECTION('Vector Direction',(1.,0.,0.)) ;
#193=DIRECTION('Vector Direction',(0.,0.,1.)) ;
#200=DIRECTION('Vector Direction',(1.,0.,0.)) ;
#207=DIRECTION('Vector Direction',(0.,0.,1.)) ;
#218=DIRECTION('Axis2P3D Direction',(0.,1.,0.)) ;
#227=DIRECTION('Axis2P3D Direction',(0.,1.,0.)) ;
#236=DIRECTION('Axis2P3D Direction',(0.,1.,0.)) ;
#246=DIRECTION('Axis2P3D Direction',(0.,-1.,-0.)) ;
#258=DIRECTION('Axis2P3D Direction',(1.,0.,-0.)) ;
#259=DIRECTION('Axis2P3D XDirection',(-0.,1.,-1.83697019872E-016)) ;
#263=DIRECTION('Axis2P3D Direction',(1.,0.,-0.)) ;
#272=DIRECTION('Vector Direction',(1.,0.,0.)) ;
#279=DIRECTION('Axis2P3D Direction',(1.,0.,-0.)) ;
#284=DIRECTION('Axis2P3D Direction',(1.,0.,-0.)) ;
#291=DIRECTION('Vector Direction',(1.,0.,0.)) ;
#305=DIRECTION('Axis2P3D Direction',(1.,0.,0.)) ;
#306=DIRECTION('Axis2P3D XDirection',(0.,1.,0.)) ;
#310=DIRECTION('Axis2P3D Direction',(1.,0.,0.)) ;
#315=DIRECTION('Vector Direction',(0.,0.,-1.)) ;
#328=DIRECTION('Axis2P3D Direction',(-1.,0.,0.)) ;
#329=DIRECTION('Axis2P3D XDirection',(0.,-1.,0.)) ;
#333=DIRECTION('Axis2P3D Direction',(-1.,0.,0.)) ;
#340=DIRECTION('Vector Direction',(0.,-1.,0.)) ;
#347=DIRECTION('Axis2P3D Direction',(-1.,0.,0.)) ;
#354=DIRECTION('Vector Direction',(0.,0.436903962737,-0.899508158576)) ;
#368=DIRECTION('Axis2P3D Direction',(0.,-1.,-0.)) ;
#369=DIRECTION('Axis2P3D XDirection',(0.87758256189,0.,0.479425538604)) ;
#373=DIRECTION('Vector Direction',(0.,-1.,0.)) ;
#380=DIRECTION('Axis2P3D Direction',(0.,-1.,-0.)) ;
#387=DIRECTION('Vector Direction',(0.,-1.,0.)) ;
#399=DIRECTION('Axis2P3D Direction',(0.,-1.,-0.)) ;
#411=DIRECTION('Axis2P3D Direction',(1.,0.,0.)) ;
#412=DIRECTION('Axis2P3D XDirection',(0.,1.,0.)) ;
#416=DIRECTION('Axis2P3D Direction',(1.,0.,0.)) ;
#425=DIRECTION('Vector Direction',(0.,1.,0.)) ;
#432=DIRECTION('Vector Direction',(0.,0.,-1.)) ;
#437=DIRECTION('Vector Direction',(0.,0.436903962737,-0.899508158576)) ;
#450=DIRECTION('Axis2P3D Direction',(-0.,0.899508158576,0.436903962737)) ;
#451=DIRECTION('Axis2P3D XDirection',(0.,-0.436903962737,0.899508158576)) ;
#455=DIRECTION('Vector Direction',(1.,0.,0.)) ;
#467=DIRECTION('Axis2P3D Direction',(0.,-0.,-1.)) ;
#468=DIRECTION('Axis2P3D XDirection',(0.87758256189,-0.479425538604,0.)) ;
#472=DIRECTION('Vector Direction',(0.,0.,-1.)) ;
#481=DIRECTION('Axis2P3D Direction',(0.,-0.,-1.)) ;
#488=DIRECTION('Vector Direction',(0.,0.,-1.)) ;
#495=DIRECTION('Axis2P3D Direction',(0.,-0.,-1.)) ;
#507=DIRECTION('Axis2P3D Direction',(0.,-0.,-1.)) ;
#512=DIRECTION('Axis2P3D Direction',(0.,-0.,-1.)) ;
#524=DIRECTION('Axis2P3D Direction',(-0.,0.,1.)) ;
#525=DIRECTION('Axis2P3D XDirection',(0.,-1.,0.)) ;
#529=DIRECTION('Vector Direction',(1.,0.,0.)) ;
#534=DIRECTION('Vector Direction',(1.,0.,0.)) ;
#550=DIRECTION('Axis2P3D Direction',(1.,0.,0.)) ;
#551=DIRECTION('Axis2P3D XDirection',(-0.,-0.7453559925,-0.666666666667)) ;
#564=DIRECTION('Axis2P3D Direction',(1.,0.,0.)) ;
#565=DIRECTION('Axis2P3D XDirection',(0.,1.,0.)) ;
#569=DIRECTION('Vector Direction',(1.,0.,0.)) ;
#583=DIRECTION('Axis2P3D Direction',(0.,-1.,0.)) ;
#584=DIRECTION('Axis2P3D XDirection',(0.,0.,-1.)) ;
#588=DIRECTION('Vector Direction',(1.,0.,0.)) ;
#610=DIRECTION('Axis2P3D Direction',(0.,0.,-1.)) ;
#611=DIRECTION('Axis2P3D XDirection',(0.,1.,0.)) ;
#47=AXIS2_PLACEMENT_3D(' ',#46,$,$) ;
#54=AXIS2_PLACEMENT_3D('Plane Axis2P3D',#51,#52,#53) ;
#67=AXIS2_PLACEMENT_3D('Circle Axis2P3D',#65,#66,$) ;
#81=AXIS2_PLACEMENT_3D('Circle Axis2P3D',#79,#80,$) ;
#110=AXIS2_PLACEMENT_3D('Plane Axis2P3D',#107,#108,#109) ;
#141=AXIS2_PLACEMENT_3D('Cylinder Axis2P3D',#138,#139,#140) ;
#154=AXIS2_PLACEMENT_3D('Circle Axis2P3D',#152,#153,$) ;
#168=AXIS2_PLACEMENT_3D('Circle Axis2P3D',#166,#167,$) ;
#181=AXIS2_PLACEMENT_3D('Plane Axis2P3D',#178,#179,#180) ;
#219=AXIS2_PLACEMENT_3D('Circle Axis2P3D',#217,#218,$) ;
#228=AXIS2_PLACEMENT_3D('Circle Axis2P3D',#226,#227,$) ;
#237=AXIS2_PLACEMENT_3D('Circle Axis2P3D',#235,#236,$) ;
#247=AXIS2_PLACEMENT_3D('Circle Axis2P3D',#245,#246,$) ;
#260=AXIS2_PLACEMENT_3D('Cylinder Axis2P3D',#257,#258,#259) ;
#264=AXIS2_PLACEMENT_3D('Circle Axis2P3D',#262,#263,$) ;
#280=AXIS2_PLACEMENT_3D('Circle Axis2P3D',#278,#279,$) ;
#285=AXIS2_PLACEMENT_3D('Circle Axis2P3D',#283,#284,$) ;
#307=AXIS2_PLACEMENT_3D('Plane Axis2P3D',#304,#305,#306) ;
#311=AXIS2_PLACEMENT_3D('Circle Axis2P3D',#309,#310,$) ;
#330=AXIS2_PLACEMENT_3D('Plane Axis2P3D',#327,#328,#329) ;
#334=AXIS2_PLACEMENT_3D('Circle Axis2P3D',#332,#333,$) ;
#348=AXIS2_PLACEMENT_3D('Circle Axis2P3D',#346,#347,$) ;
#370=AXIS2_PLACEMENT_3D('Cylinder Axis2P3D',#367,#368,#369) ;
#381=AXIS2_PLACEMENT_3D('Circle Axis2P3D',#379,#380,$) ;
#400=AXIS2_PLACEMENT_3D('Circle Axis2P3D',#398,#399,$) ;
#413=AXIS2_PLACEMENT_3D('Plane Axis2P3D',#410,#411,#412) ;
#417=AXIS2_PLACEMENT_3D('Circle Axis2P3D',#415,#416,$) ;
#452=AXIS2_PLACEMENT_3D('Plane Axis2P3D',#449,#450,#451) ;
#469=AXIS2_PLACEMENT_3D('Cylinder Axis2P3D',#466,#467,#468) ;
#482=AXIS2_PLACEMENT_3D('Circle Axis2P3D',#480,#481,$) ;
#496=AXIS2_PLACEMENT_3D('Circle Axis2P3D',#494,#495,$) ;
#508=AXIS2_PLACEMENT_3D('Circle Axis2P3D',#506,#507,$) ;
#513=AXIS2_PLACEMENT_3D('Circle Axis2P3D',#511,#512,$) ;
#526=AXIS2_PLACEMENT_3D('Plane Axis2P3D',#523,#524,#525) ;
#552=AXIS2_PLACEMENT_3D('Cylinder Axis2P3D',#549,#550,#551) ;
#566=AXIS2_PLACEMENT_3D('Cylinder Axis2P3D',#563,#564,#565) ;
#585=AXIS2_PLACEMENT_3D('Plane Axis2P3D',#582,#583,#584) ;
#612=AXIS2_PLACEMENT_3D('Plane Axis2P3D',#609,#610,#611) ;
#40=PRODUCT_DEFINITION_SHAPE(' ',' ',#14) ;
#31=APPROVAL_PERSON_ORGANIZATION(#25,#21,#19) ;
#25=PERSON_AND_ORGANIZATION(#22,#23) ;
#22=PERSON(' ',' ',' ',$,$,$) ;
#23=ORGANIZATION(' ',' ',' ') ;
#21=APPROVAL(#20,' ') ;
#20=APPROVAL_STATUS('not_yet_approved') ;
#19=APPROVAL_ROLE('APPROVER') ;
#13=DATE_AND_TIME(#11,#12) ;
#12=LOCAL_TIME(0,31,6.,#10) ;
#10=COORDINATED_UNIVERSAL_TIME_OFFSET(0,0,.AHEAD.) ;
#99=ORIENTED_EDGE('',*,*,#64,.T.) ;
#100=ORIENTED_EDGE('',*,*,#71,.T.) ;
#101=ORIENTED_EDGE('',*,*,#78,.T.) ;
#102=ORIENTED_EDGE('',*,*,#85,.T.) ;
#103=ORIENTED_EDGE('',*,*,#92,.T.) ;
#104=ORIENTED_EDGE('',*,*,#97,.T.) ;
#132=ORIENTED_EDGE('',*,*,#118,.F.) ;
#133=ORIENTED_EDGE('',*,*,#125,.T.) ;
#134=ORIENTED_EDGE('',*,*,#130,.T.) ;
#135=ORIENTED_EDGE('',*,*,#92,.F.) ;
#172=ORIENTED_EDGE('',*,*,#151,.F.) ;
#173=ORIENTED_EDGE('',*,*,#158,.T.) ;
#174=ORIENTED_EDGE('',*,*,#165,.T.) ;
#175=ORIENTED_EDGE('',*,*,#170,.T.) ;
#212=ORIENTED_EDGE('',*,*,#191,.T.) ;
#213=ORIENTED_EDGE('',*,*,#198,.F.) ;
#214=ORIENTED_EDGE('',*,*,#205,.T.) ;
#215=ORIENTED_EDGE('',*,*,#210,.T.) ;
#232=ORIENTED_EDGE('',*,*,#225,.F.) ;
#233=ORIENTED_EDGE('',*,*,#230,.F.) ;
#241=ORIENTED_EDGE('',*,*,#239,.F.) ;
#242=ORIENTED_EDGE('',*,*,#170,.F.) ;
#251=ORIENTED_EDGE('',*,*,#165,.F.) ;
#252=ORIENTED_EDGE('',*,*,#249,.T.) ;
#253=ORIENTED_EDGE('',*,*,#151,.T.) ;
#254=ORIENTED_EDGE('',*,*,#239,.T.) ;
#296=ORIENTED_EDGE('',*,*,#270,.T.) ;
#297=ORIENTED_EDGE('',*,*,#277,.T.) ;
#298=ORIENTED_EDGE('',*,*,#282,.T.) ;
#299=ORIENTED_EDGE('',*,*,#191,.F.) ;
#300=ORIENTED_EDGE('',*,*,#289,.F.) ;
#301=ORIENTED_EDGE('',*,*,#294,.F.) ;
#320=ORIENTED_EDGE('',*,*,#313,.T.) ;
#321=ORIENTED_EDGE('',*,*,#198,.T.) ;
#322=ORIENTED_EDGE('',*,*,#282,.F.) ;
#323=ORIENTED_EDGE('',*,*,#318,.T.) ;
#324=ORIENTED_EDGE('',*,*,#125,.F.) ;
#359=ORIENTED_EDGE('',*,*,#289,.T.) ;
#360=ORIENTED_EDGE('',*,*,#210,.F.) ;
#361=ORIENTED_EDGE('',*,*,#338,.F.) ;
#362=ORIENTED_EDGE('',*,*,#345,.F.) ;
#363=ORIENTED_EDGE('',*,*,#352,.T.) ;
#364=ORIENTED_EDGE('',*,*,#357,.F.) ;
#392=ORIENTED_EDGE('',*,*,#378,.F.) ;
#393=ORIENTED_EDGE('',*,*,#385,.T.) ;
#394=ORIENTED_EDGE('',*,*,#390,.T.) ;
#395=ORIENTED_EDGE('',*,*,#225,.T.) ;
#404=ORIENTED_EDGE('',*,*,#390,.F.) ;
#405=ORIENTED_EDGE('',*,*,#402,.T.) ;
#406=ORIENTED_EDGE('',*,*,#378,.T.) ;
#407=ORIENTED_EDGE('',*,*,#230,.T.) ;
#442=ORIENTED_EDGE('',*,*,#423,.F.) ;
#443=ORIENTED_EDGE('',*,*,#430,.F.) ;
#444=ORIENTED_EDGE('',*,*,#435,.F.) ;
#445=ORIENTED_EDGE('',*,*,#270,.F.) ;
#446=ORIENTED_EDGE('',*,*,#440,.T.) ;
#460=ORIENTED_EDGE('',*,*,#357,.T.) ;
#461=ORIENTED_EDGE('',*,*,#458,.F.) ;
#462=ORIENTED_EDGE('',*,*,#440,.F.) ;
#463=ORIENTED_EDGE('',*,*,#294,.T.) ;
#500=ORIENTED_EDGE('',*,*,#479,.F.) ;
#501=ORIENTED_EDGE('',*,*,#486,.T.) ;
#502=ORIENTED_EDGE('',*,*,#493,.T.) ;
#503=ORIENTED_EDGE('',*,*,#498,.T.) ;
#517=ORIENTED_EDGE('',*,*,#493,.F.) ;
#518=ORIENTED_EDGE('',*,*,#510,.T.) ;
#519=ORIENTED_EDGE('',*,*,#479,.T.) ;
#520=ORIENTED_EDGE('',*,*,#515,.T.) ;
#539=ORIENTED_EDGE('',*,*,#532,.F.) ;
#540=ORIENTED_EDGE('',*,*,#345,.T.) ;
#541=ORIENTED_EDGE('',*,*,#537,.F.) ;
#542=ORIENTED_EDGE('',*,*,#78,.F.) ;
#545=ORIENTED_EDGE('',*,*,#515,.F.) ;
#546=ORIENTED_EDGE('',*,*,#498,.F.) ;
#555=ORIENTED_EDGE('',*,*,#537,.T.) ;
#556=ORIENTED_EDGE('',*,*,#338,.T.) ;
#557=ORIENTED_EDGE('',*,*,#205,.F.) ;
#558=ORIENTED_EDGE('',*,*,#313,.F.) ;
#559=ORIENTED_EDGE('',*,*,#118,.T.) ;
#560=ORIENTED_EDGE('',*,*,#85,.F.) ;
#574=ORIENTED_EDGE('',*,*,#572,.F.) ;
#575=ORIENTED_EDGE('',*,*,#423,.T.) ;
#576=ORIENTED_EDGE('',*,*,#458,.T.) ;
#577=ORIENTED_EDGE('',*,*,#352,.F.) ;
#578=ORIENTED_EDGE('',*,*,#532,.T.) ;
#579=ORIENTED_EDGE('',*,*,#71,.F.) ;
#593=ORIENTED_EDGE('',*,*,#130,.F.) ;
#594=ORIENTED_EDGE('',*,*,#318,.F.) ;
#595=ORIENTED_EDGE('',*,*,#277,.F.) ;
#596=ORIENTED_EDGE('',*,*,#435,.T.) ;
#597=ORIENTED_EDGE('',*,*,#591,.T.) ;
#598=ORIENTED_EDGE('',*,*,#97,.F.) ;
#601=ORIENTED_EDGE('',*,*,#158,.F.) ;
#602=ORIENTED_EDGE('',*,*,#249,.F.) ;
#605=ORIENTED_EDGE('',*,*,#385,.F.) ;
#606=ORIENTED_EDGE('',*,*,#402,.F.) ;
#615=ORIENTED_EDGE('',*,*,#591,.F.) ;
#616=ORIENTED_EDGE('',*,*,#430,.T.) ;
#617=ORIENTED_EDGE('',*,*,#572,.T.) ;
#618=ORIENTED_EDGE('',*,*,#64,.F.) ;
#621=ORIENTED_EDGE('',*,*,#510,.F.) ;
#622=ORIENTED_EDGE('',*,*,#486,.F.) ;
#234=FACE_BOUND('',#231,.T.) ;
#243=FACE_BOUND('',#240,.T.) ;
#547=FACE_BOUND('',#544,.T.) ;
#603=FACE_BOUND('',#600,.T.) ;
#607=FACE_BOUND('',#604,.T.) ;
#623=FACE_BOUND('',#620,.T.) ;
#50=CLOSED_SHELL('Closed Shell',(#106,#137,#177,#244,#256,#303,#326,#366,#397,#409,#448,#465,#505,#522,#548,#562,#581,#608,#624)) ;
#58=VECTOR('Line Direction',#57,1.) ;
#74=VECTOR('Line Direction',#73,1.) ;
#88=VECTOR('Line Direction',#87,1.) ;
#95=VECTOR('Line Direction',#94,1.) ;
#114=VECTOR('Line Direction',#113,1.) ;
#121=VECTOR('Line Direction',#120,1.) ;
#128=VECTOR('Line Direction',#127,1.) ;
#145=VECTOR('Line Direction',#144,1.) ;
#161=VECTOR('Line Direction',#160,1.) ;
#185=VECTOR('Line Direction',#184,1.) ;
#194=VECTOR('Line Direction',#193,1.) ;
#201=VECTOR('Line Direction',#200,1.) ;
#208=VECTOR('Line Direction',#207,1.) ;
#273=VECTOR('Line Direction',#272,1.) ;
#292=VECTOR('Line Direction',#291,1.) ;
#316=VECTOR('Line Direction',#315,1.) ;
#341=VECTOR('Line Direction',#340,1.) ;
#355=VECTOR('Line Direction',#354,1.) ;
#374=VECTOR('Line Direction',#373,1.) ;
#388=VECTOR('Line Direction',#387,1.) ;
#426=VECTOR('Line Direction',#425,1.) ;
#433=VECTOR('Line Direction',#432,1.) ;
#438=VECTOR('Line Direction',#437,1.) ;
#456=VECTOR('Line Direction',#455,1.) ;
#473=VECTOR('Line Direction',#472,1.) ;
#489=VECTOR('Line Direction',#488,1.) ;
#530=VECTOR('Line Direction',#529,1.) ;
#535=VECTOR('Line Direction',#534,1.) ;
#570=VECTOR('Line Direction',#569,1.) ;
#589=VECTOR('Line Direction',#588,1.) ;
#626=ADVANCED_BREP_SHAPE_REPRESENTATION('NONE',(#625),#45) ;
#48=SHAPE_REPRESENTATION(' ',(#47),#45) ;
#106=ADVANCED_FACE('Corps principal',(#105),#55,.T.) ;
#137=ADVANCED_FACE('Corps principal',(#136),#111,.F.) ;
#177=ADVANCED_FACE('Corps principal',(#176),#142,.F.) ;
#244=ADVANCED_FACE('Corps principal',(#216,#234,#243),#182,.T.) ;
#256=ADVANCED_FACE('Corps principal',(#255),#142,.F.) ;
#303=ADVANCED_FACE('Corps principal',(#302),#261,.T.) ;
#326=ADVANCED_FACE('Corps principal',(#325),#308,.T.) ;
#366=ADVANCED_FACE('Corps principal',(#365),#331,.F.) ;
#397=ADVANCED_FACE('Corps principal',(#396),#371,.F.) ;
#409=ADVANCED_FACE('Corps principal',(#408),#371,.F.) ;
#448=ADVANCED_FACE('Corps principal',(#447),#414,.F.) ;
#465=ADVANCED_FACE('Corps principal',(#464),#453,.T.) ;
#505=ADVANCED_FACE('Corps principal',(#504),#470,.F.) ;
#522=ADVANCED_FACE('Corps principal',(#521),#470,.F.) ;
#548=ADVANCED_FACE('Corps principal',(#543,#547),#527,.T.) ;
#562=ADVANCED_FACE('Corps principal',(#561),#553,.F.) ;
#581=ADVANCED_FACE('Corps principal',(#580),#567,.T.) ;
#608=ADVANCED_FACE('Corps principal',(#599,#603,#607),#586,.T.) ;
#624=ADVANCED_FACE('Corps principal',(#619,#623),#613,.T.) ;
#4=APPLICATION_PROTOCOL_DEFINITION('international standard','config_control_design',1994,#1) ;
#32=APPROVAL_DATE_TIME(#13,#21) ;
#625=MANIFOLD_SOLID_BREP('Corps principal',#50) ;
#11=CALENDAR_DATE(2020,8,7) ;
#30=CC_DESIGN_APPROVAL(#21,(#16,#6,#14)) ;
#18=CC_DESIGN_DATE_AND_TIME_ASSIGNMENT(#13,#17,(#16)) ;
#29=CC_DESIGN_DATE_AND_TIME_ASSIGNMENT(#13,#28,(#14)) ;
#17=DATE_TIME_ROLE('classification_date') ;
#28=DATE_TIME_ROLE('creation_date') ;
#27=CC_DESIGN_PERSON_AND_ORGANIZATION_ASSIGNMENT(#25,#26,(#16)) ;
#33=CC_DESIGN_PERSON_AND_ORGANIZATION_ASSIGNMENT(#25,#34,(#6)) ;
#35=CC_DESIGN_PERSON_AND_ORGANIZATION_ASSIGNMENT(#25,#36,(#6,#14)) ;
#37=CC_DESIGN_PERSON_AND_ORGANIZATION_ASSIGNMENT(#25,#38,(#5)) ;
#26=PERSON_AND_ORGANIZATION_ROLE('classification_officer') ;
#34=PERSON_AND_ORGANIZATION_ROLE('design_supplier') ;
#36=PERSON_AND_ORGANIZATION_ROLE('creator') ;
#38=PERSON_AND_ORGANIZATION_ROLE('design_owner') ;
#39=CC_DESIGN_SECURITY_CLASSIFICATION(#16,(#6)) ;
#68=CIRCLE('generated circle',#67,5.) ;
#82=CIRCLE('generated circle',#81,30.) ;
#155=CIRCLE('generated circle',#154,6.) ;
#169=CIRCLE('generated circle',#168,6.) ;
#220=CIRCLE('generated circle',#219,6.) ;
#229=CIRCLE('generated circle',#228,6.) ;
#238=CIRCLE('generated circle',#237,6.) ;
#248=CIRCLE('generated circle',#247,6.) ;
#265=CIRCLE('generated circle',#264,5.) ;
#281=CIRCLE('generated circle',#280,5.) ;
#286=CIRCLE('generated circle',#285,5.) ;
#312=CIRCLE('generated circle',#311,30.) ;
#335=CIRCLE('generated circle',#334,30.) ;
#349=CIRCLE('generated circle',#348,5.) ;
#382=CIRCLE('generated circle',#381,6.) ;
#401=CIRCLE('generated circle',#400,6.) ;
#418=CIRCLE('generated circle',#417,5.) ;
#483=CIRCLE('generated circle',#482,6.) ;
#497=CIRCLE('generated circle',#496,6.) ;
#509=CIRCLE('generated circle',#508,6.) ;
#514=CIRCLE('generated circle',#513,6.) ;
#627=SHAPE_REPRESENTATION_RELATIONSHIP(' ',' ',#48,#626) ;
#142=CYLINDRICAL_SURFACE('generated cylinder',#141,6.) ;
#261=CYLINDRICAL_SURFACE('generated cylinder',#260,5.) ;
#371=CYLINDRICAL_SURFACE('generated cylinder',#370,6.) ;
#470=CYLINDRICAL_SURFACE('generated cylinder',#469,6.) ;
#553=CYLINDRICAL_SURFACE('generated cylinder',#552,30.) ;
#567=CYLINDRICAL_SURFACE('generated cylinder',#566,5.) ;
#3=DESIGN_CONTEXT(' ',#1,'design') ;
#64=EDGE_CURVE('',#61,#63,#59,.T.) ;
#71=EDGE_CURVE('',#63,#70,#68,.T.) ;
#78=EDGE_CURVE('',#70,#77,#75,.T.) ;
#85=EDGE_CURVE('',#77,#84,#82,.F.) ;
#92=EDGE_CURVE('',#84,#91,#89,.F.) ;
#97=EDGE_CURVE('',#91,#61,#96,.T.) ;
#118=EDGE_CURVE('',#117,#84,#115,.T.) ;
#125=EDGE_CURVE('',#117,#124,#122,.F.) ;
#130=EDGE_CURVE('',#124,#91,#129,.T.) ;
#151=EDGE_CURVE('',#148,#150,#146,.F.) ;
#158=EDGE_CURVE('',#148,#157,#155,.T.) ;
#165=EDGE_CURVE('',#157,#164,#162,.F.) ;
#170=EDGE_CURVE('',#164,#150,#169,.F.) ;
#191=EDGE_CURVE('',#188,#190,#186,.T.) ;
#198=EDGE_CURVE('',#197,#190,#195,.T.) ;
#205=EDGE_CURVE('',#197,#204,#202,.F.) ;
#210=EDGE_CURVE('',#204,#188,#209,.T.) ;
#225=EDGE_CURVE('',#222,#224,#220,.T.) ;
#230=EDGE_CURVE('',#224,#222,#229,.T.) ;
#239=EDGE_CURVE('',#150,#164,#238,.T.) ;
#249=EDGE_CURVE('',#157,#148,#248,.T.) ;
#270=EDGE_CURVE('',#267,#269,#265,.T.) ;
#277=EDGE_CURVE('',#269,#276,#274,.T.) ;
#282=EDGE_CURVE('',#276,#190,#281,.F.) ;
#289=EDGE_CURVE('',#288,#188,#286,.F.) ;
#294=EDGE_CURVE('',#267,#288,#293,.T.) ;
#313=EDGE_CURVE('',#117,#197,#312,.F.) ;
#318=EDGE_CURVE('',#276,#124,#317,.T.) ;
#338=EDGE_CURVE('',#337,#204,#335,.T.) ;
#345=EDGE_CURVE('',#344,#337,#342,.T.) ;
#352=EDGE_CURVE('',#344,#351,#349,.T.) ;
#357=EDGE_CURVE('',#288,#351,#356,.T.) ;
#378=EDGE_CURVE('',#377,#224,#375,.F.) ;
#385=EDGE_CURVE('',#377,#384,#382,.T.) ;
#390=EDGE_CURVE('',#384,#222,#389,.F.) ;
#402=EDGE_CURVE('',#384,#377,#401,.T.) ;
#423=EDGE_CURVE('',#420,#422,#418,.T.) ;
#430=EDGE_CURVE('',#429,#420,#427,.T.) ;
#435=EDGE_CURVE('',#269,#429,#434,.T.) ;
#440=EDGE_CURVE('',#267,#422,#439,.T.) ;
#458=EDGE_CURVE('',#422,#351,#457,.T.) ;
#479=EDGE_CURVE('',#476,#478,#474,.F.) ;
#486=EDGE_CURVE('',#476,#485,#483,.T.) ;
#493=EDGE_CURVE('',#485,#492,#490,.F.) ;
#498=EDGE_CURVE('',#492,#478,#497,.F.) ;
#510=EDGE_CURVE('',#485,#476,#509,.T.) ;
#515=EDGE_CURVE('',#478,#492,#514,.F.) ;
#532=EDGE_CURVE('',#344,#70,#531,.T.) ;
#537=EDGE_CURVE('',#77,#337,#536,.F.) ;
#572=EDGE_CURVE('',#420,#63,#571,.T.) ;
#591=EDGE_CURVE('',#429,#61,#590,.T.) ;
#98=EDGE_LOOP('',(#99,#100,#101,#102,#103,#104)) ;
#131=EDGE_LOOP('',(#132,#133,#134,#135)) ;
#171=EDGE_LOOP('',(#172,#173,#174,#175)) ;
#211=EDGE_LOOP('',(#212,#213,#214,#215)) ;
#231=EDGE_LOOP('',(#232,#233)) ;
#240=EDGE_LOOP('',(#241,#242)) ;
#250=EDGE_LOOP('',(#251,#252,#253,#254)) ;
#295=EDGE_LOOP('',(#296,#297,#298,#299,#300,#301)) ;
#319=EDGE_LOOP('',(#320,#321,#322,#323,#324)) ;
#358=EDGE_LOOP('',(#359,#360,#361,#362,#363,#364)) ;
#391=EDGE_LOOP('',(#392,#393,#394,#395)) ;
#403=EDGE_LOOP('',(#404,#405,#406,#407)) ;
#441=EDGE_LOOP('',(#442,#443,#444,#445,#446)) ;
#459=EDGE_LOOP('',(#460,#461,#462,#463)) ;
#499=EDGE_LOOP('',(#500,#501,#502,#503)) ;
#516=EDGE_LOOP('',(#517,#518,#519,#520)) ;
#538=EDGE_LOOP('',(#539,#540,#541,#542)) ;
#544=EDGE_LOOP('',(#545,#546)) ;
#554=EDGE_LOOP('',(#555,#556,#557,#558,#559,#560)) ;
#573=EDGE_LOOP('',(#574,#575,#576,#577,#578,#579)) ;
#592=EDGE_LOOP('',(#593,#594,#595,#596,#597,#598)) ;
#600=EDGE_LOOP('',(#601,#602)) ;
#604=EDGE_LOOP('',(#605,#606)) ;
#614=EDGE_LOOP('',(#615,#616,#617,#618)) ;
#620=EDGE_LOOP('',(#621,#622)) ;
#105=FACE_OUTER_BOUND('',#98,.T.) ;
#136=FACE_OUTER_BOUND('',#131,.T.) ;
#176=FACE_OUTER_BOUND('',#171,.T.) ;
#216=FACE_OUTER_BOUND('',#211,.T.) ;
#255=FACE_OUTER_BOUND('',#250,.T.) ;
#302=FACE_OUTER_BOUND('',#295,.T.) ;
#325=FACE_OUTER_BOUND('',#319,.T.) ;
#365=FACE_OUTER_BOUND('',#358,.T.) ;
#396=FACE_OUTER_BOUND('',#391,.T.) ;
#408=FACE_OUTER_BOUND('',#403,.T.) ;
#447=FACE_OUTER_BOUND('',#441,.T.) ;
#464=FACE_OUTER_BOUND('',#459,.T.) ;
#504=FACE_OUTER_BOUND('',#499,.T.) ;
#521=FACE_OUTER_BOUND('',#516,.T.) ;
#543=FACE_OUTER_BOUND('',#538,.T.) ;
#561=FACE_OUTER_BOUND('',#554,.T.) ;
#580=FACE_OUTER_BOUND('',#573,.T.) ;
#599=FACE_OUTER_BOUND('',#592,.T.) ;
#619=FACE_OUTER_BOUND('',#614,.T.) ;
#44=UNCERTAINTY_MEASURE_WITH_UNIT(LENGTH_MEASURE(0.005),#41,'distance_accuracy_value','CONFUSED CURVE UNCERTAINTY') ;
#59=LINE('Line',#56,#58) ;
#75=LINE('Line',#72,#74) ;
#89=LINE('Line',#86,#88) ;
#96=LINE('Line',#93,#95) ;
#115=LINE('Line',#112,#114) ;
#122=LINE('Line',#119,#121) ;
#129=LINE('Line',#126,#128) ;
#146=LINE('Line',#143,#145) ;
#162=LINE('Line',#159,#161) ;
#186=LINE('Line',#183,#185) ;
#195=LINE('Line',#192,#194) ;
#202=LINE('Line',#199,#201) ;
#209=LINE('Line',#206,#208) ;
#274=LINE('Line',#271,#273) ;
#293=LINE('Line',#290,#292) ;
#317=LINE('Line',#314,#316) ;
#342=LINE('Line',#339,#341) ;
#356=LINE('Line',#353,#355) ;
#375=LINE('Line',#372,#374) ;
#389=LINE('Line',#386,#388) ;
#427=LINE('Line',#424,#426) ;
#434=LINE('Line',#431,#433) ;
#439=LINE('Line',#436,#438) ;
#457=LINE('Line',#454,#456) ;
#474=LINE('Line',#471,#473) ;
#490=LINE('Line',#487,#489) ;
#531=LINE('Line',#528,#530) ;
#536=LINE('Line',#533,#535) ;
#571=LINE('Line',#568,#570) ;
#590=LINE('Line',#587,#589) ;
#2=MECHANICAL_CONTEXT(' ',#1,'mechanical') ;
#24=PERSONAL_ADDRESS(' ',' ',' ',' ',' ',' ',' ',' ',' ',' ',' ',' ',(#22),' ') ;
#55=PLANE('',#54) ;
#111=PLANE('',#110) ;
#182=PLANE('',#181) ;
#308=PLANE('',#307) ;
#331=PLANE('',#330) ;
#414=PLANE('',#413) ;
#453=PLANE('',#452) ;
#527=PLANE('',#526) ;
#586=PLANE('',#585) ;
#613=PLANE('',#612) ;
#7=PRODUCT_CATEGORY('part',$) ;
#9=PRODUCT_CATEGORY_RELATIONSHIP(' ',' ',#7,#8) ;
#6=PRODUCT_DEFINITION_FORMATION_WITH_SPECIFIED_SOURCE('',' ',#5,.NOT_KNOWN.) ;
#8=PRODUCT_RELATED_PRODUCT_CATEGORY('detail',$,(#5)) ;
#49=SHAPE_DEFINITION_REPRESENTATION(#40,#48) ;
#61=VERTEX_POINT('',#60) ;
#63=VERTEX_POINT('',#62) ;
#70=VERTEX_POINT('',#69) ;
#77=VERTEX_POINT('',#76) ;
#84=VERTEX_POINT('',#83) ;
#91=VERTEX_POINT('',#90) ;
#117=VERTEX_POINT('',#116) ;
#124=VERTEX_POINT('',#123) ;
#148=VERTEX_POINT('',#147) ;
#150=VERTEX_POINT('',#149) ;
#157=VERTEX_POINT('',#156) ;
#164=VERTEX_POINT('',#163) ;
#188=VERTEX_POINT('',#187) ;
#190=VERTEX_POINT('',#189) ;
#197=VERTEX_POINT('',#196) ;
#204=VERTEX_POINT('',#203) ;
#222=VERTEX_POINT('',#221) ;
#224=VERTEX_POINT('',#223) ;
#267=VERTEX_POINT('',#266) ;
#269=VERTEX_POINT('',#268) ;
#276=VERTEX_POINT('',#275) ;
#288=VERTEX_POINT('',#287) ;
#337=VERTEX_POINT('',#336) ;
#344=VERTEX_POINT('',#343) ;
#351=VERTEX_POINT('',#350) ;
#377=VERTEX_POINT('',#376) ;
#384=VERTEX_POINT('',#383) ;
#420=VERTEX_POINT('',#419) ;
#422=VERTEX_POINT('',#421) ;
#429=VERTEX_POINT('',#428) ;
#476=VERTEX_POINT('',#475) ;
#478=VERTEX_POINT('',#477) ;
#485=VERTEX_POINT('',#484) ;
#492=VERTEX_POINT('',#491) ;
#41=(LENGTH_UNIT()NAMED_UNIT(*)SI_UNIT(.MILLI.,.METRE.)) ;
#42=(NAMED_UNIT(*)PLANE_ANGLE_UNIT()SI_UNIT($,.RADIAN.)) ;
#43=(NAMED_UNIT(*)SI_UNIT($,.STERADIAN.)SOLID_ANGLE_UNIT()) ;
#45=(GEOMETRIC_REPRESENTATION_CONTEXT(3)GLOBAL_UNCERTAINTY_ASSIGNED_CONTEXT((#44))GLOBAL_UNIT_ASSIGNED_CONTEXT((#41,#42,#43))REPRESENTATION_CONTEXT(' ',' ')) ;
ENDSEC;
END-ISO-10303-21;
