ISO-10303-21;
HEADER;
/* Generated by software containing ST-Developer
 * from STEP Tools, Inc. (www.steptools.com) 
 */

FILE_DESCRIPTION(
/* description */ (''),
/* implementation_level */ '2;1');

FILE_NAME(
/* name */ 
'/Users/daviddecamp/OneDrive - Ferronnerie Decamp/Boulot David/Dossier
s Clients/Atelier/base serre joint v1.step',
/* time_stamp */ '2020-07-15T10:26:23+02:00',
/* author */ (''),
/* organization */ (''),
/* preprocessor_version */ 'ST-DEVELOPER v18.1',
/* originating_system */ 'Autodesk Translation Framework v9.2.0.1227',
/* authorisation */ '');

FILE_SCHEMA (('AUTOMOTIVE_DESIGN { 1 0 10303 214 3 1 1 }'));
ENDSEC;

DATA;
#10=MECHANICAL_DESIGN_GEOMETRIC_PRESENTATION_REPRESENTATION('',(#13),#207);
#11=SHAPE_REPRESENTATION_RELATIONSHIP('SRR','None',#214,#12);
#12=ADVANCED_BREP_SHAPE_REPRESENTATION('',(#14),#206);
#13=STYLED_ITEM('',(#223),#14);
#14=MANIFOLD_SOLID_BREP('Body1',#108);
#15=FACE_BOUND('',#47,.T.);
#16=CONICAL_SURFACE('',#129,14.5,0.785398163397449);
#17=CONICAL_SURFACE('',#135,14.5,0.785398163397449);
#18=PLANE('',#128);
#19=PLANE('',#134);
#20=PLANE('',#137);
#21=LINE('',#185,#25);
#22=LINE('',#192,#26);
#23=LINE('',#197,#27);
#24=LINE('',#202,#28);
#25=VECTOR('',#150,8.);
#26=VECTOR('',#159,14.5);
#27=VECTOR('',#166,15.);
#28=VECTOR('',#173,14.5);
#29=CYLINDRICAL_SURFACE('',#126,8.);
#30=CYLINDRICAL_SURFACE('',#132,15.);
#31=FACE_OUTER_BOUND('',#39,.T.);
#32=FACE_OUTER_BOUND('',#40,.T.);
#33=FACE_OUTER_BOUND('',#41,.T.);
#34=FACE_OUTER_BOUND('',#42,.T.);
#35=FACE_OUTER_BOUND('',#43,.T.);
#36=FACE_OUTER_BOUND('',#44,.T.);
#37=FACE_OUTER_BOUND('',#45,.T.);
#38=FACE_OUTER_BOUND('',#46,.T.);
#39=EDGE_LOOP('',(#75,#76,#77,#78));
#40=EDGE_LOOP('',(#79,#80,#81,#82));
#41=EDGE_LOOP('',(#83));
#42=EDGE_LOOP('',(#84,#85,#86,#87));
#43=EDGE_LOOP('',(#88,#89,#90,#91));
#44=EDGE_LOOP('',(#92));
#45=EDGE_LOOP('',(#93,#94,#95,#96));
#46=EDGE_LOOP('',(#97));
#47=EDGE_LOOP('',(#98));
#48=CIRCLE('',#123,7.);
#49=CIRCLE('',#124,1.);
#50=CIRCLE('',#125,8.);
#51=CIRCLE('',#127,8.);
#52=CIRCLE('',#130,15.);
#53=CIRCLE('',#131,14.);
#54=CIRCLE('',#133,15.);
#55=CIRCLE('',#136,14.);
#56=VERTEX_POINT('',#178);
#57=VERTEX_POINT('',#180);
#58=VERTEX_POINT('',#184);
#59=VERTEX_POINT('',#189);
#60=VERTEX_POINT('',#191);
#61=VERTEX_POINT('',#195);
#62=VERTEX_POINT('',#200);
#63=EDGE_CURVE('',#56,#56,#48,.T.);
#64=EDGE_CURVE('',#56,#57,#49,.T.);
#65=EDGE_CURVE('',#57,#57,#50,.T.);
#66=EDGE_CURVE('',#57,#58,#21,.T.);
#67=EDGE_CURVE('',#58,#58,#51,.T.);
#68=EDGE_CURVE('',#59,#59,#52,.T.);
#69=EDGE_CURVE('',#59,#60,#22,.T.);
#70=EDGE_CURVE('',#60,#60,#53,.T.);
#71=EDGE_CURVE('',#61,#61,#54,.T.);
#72=EDGE_CURVE('',#61,#59,#23,.T.);
#73=EDGE_CURVE('',#62,#62,#55,.T.);
#74=EDGE_CURVE('',#62,#61,#24,.T.);
#75=ORIENTED_EDGE('',*,*,#63,.T.);
#76=ORIENTED_EDGE('',*,*,#64,.T.);
#77=ORIENTED_EDGE('',*,*,#65,.T.);
#78=ORIENTED_EDGE('',*,*,#64,.F.);
#79=ORIENTED_EDGE('',*,*,#65,.F.);
#80=ORIENTED_EDGE('',*,*,#66,.T.);
#81=ORIENTED_EDGE('',*,*,#67,.F.);
#82=ORIENTED_EDGE('',*,*,#66,.F.);
#83=ORIENTED_EDGE('',*,*,#63,.F.);
#84=ORIENTED_EDGE('',*,*,#68,.T.);
#85=ORIENTED_EDGE('',*,*,#69,.T.);
#86=ORIENTED_EDGE('',*,*,#70,.T.);
#87=ORIENTED_EDGE('',*,*,#69,.F.);
#88=ORIENTED_EDGE('',*,*,#71,.F.);
#89=ORIENTED_EDGE('',*,*,#72,.T.);
#90=ORIENTED_EDGE('',*,*,#68,.F.);
#91=ORIENTED_EDGE('',*,*,#72,.F.);
#92=ORIENTED_EDGE('',*,*,#70,.F.);
#93=ORIENTED_EDGE('',*,*,#73,.T.);
#94=ORIENTED_EDGE('',*,*,#74,.T.);
#95=ORIENTED_EDGE('',*,*,#71,.T.);
#96=ORIENTED_EDGE('',*,*,#74,.F.);
#97=ORIENTED_EDGE('',*,*,#73,.F.);
#98=ORIENTED_EDGE('',*,*,#67,.T.);
#99=TOROIDAL_SURFACE('',#122,7.,1.);
#100=ADVANCED_FACE('',(#31),#99,.T.);
#101=ADVANCED_FACE('',(#32),#29,.T.);
#102=ADVANCED_FACE('',(#33),#18,.T.);
#103=ADVANCED_FACE('',(#34),#16,.T.);
#104=ADVANCED_FACE('',(#35),#30,.T.);
#105=ADVANCED_FACE('',(#36),#19,.F.);
#106=ADVANCED_FACE('',(#37),#17,.T.);
#107=ADVANCED_FACE('',(#38,#15),#20,.T.);
#108=CLOSED_SHELL('',(#100,#101,#102,#103,#104,#105,#106,#107));
#109=DERIVED_UNIT_ELEMENT(#111,1.);
#110=DERIVED_UNIT_ELEMENT(#209,3.);
#111=(
MASS_UNIT()
NAMED_UNIT(*)
SI_UNIT(.KILO.,.GRAM.)
);
#112=DERIVED_UNIT((#109,#110));
#113=MEASURE_REPRESENTATION_ITEM('density measure',
POSITIVE_RATIO_MEASURE(7850.),#112);
#114=PROPERTY_DEFINITION_REPRESENTATION(#119,#116);
#115=PROPERTY_DEFINITION_REPRESENTATION(#120,#117);
#116=REPRESENTATION('material name',(#118),#206);
#117=REPRESENTATION('density',(#113),#206);
#118=DESCRIPTIVE_REPRESENTATION_ITEM('Steel','Steel');
#119=PROPERTY_DEFINITION('material property','material name',#216);
#120=PROPERTY_DEFINITION('material property','density of part',#216);
#121=AXIS2_PLACEMENT_3D('placement',#176,#138,#139);
#122=AXIS2_PLACEMENT_3D('',#177,#140,#141);
#123=AXIS2_PLACEMENT_3D('',#179,#142,#143);
#124=AXIS2_PLACEMENT_3D('',#181,#144,#145);
#125=AXIS2_PLACEMENT_3D('',#182,#146,#147);
#126=AXIS2_PLACEMENT_3D('',#183,#148,#149);
#127=AXIS2_PLACEMENT_3D('',#186,#151,#152);
#128=AXIS2_PLACEMENT_3D('',#187,#153,#154);
#129=AXIS2_PLACEMENT_3D('',#188,#155,#156);
#130=AXIS2_PLACEMENT_3D('',#190,#157,#158);
#131=AXIS2_PLACEMENT_3D('',#193,#160,#161);
#132=AXIS2_PLACEMENT_3D('',#194,#162,#163);
#133=AXIS2_PLACEMENT_3D('',#196,#164,#165);
#134=AXIS2_PLACEMENT_3D('',#198,#167,#168);
#135=AXIS2_PLACEMENT_3D('',#199,#169,#170);
#136=AXIS2_PLACEMENT_3D('',#201,#171,#172);
#137=AXIS2_PLACEMENT_3D('',#203,#174,#175);
#138=DIRECTION('axis',(0.,0.,1.));
#139=DIRECTION('refdir',(1.,0.,0.));
#140=DIRECTION('center_axis',(0.,0.,1.));
#141=DIRECTION('ref_axis',(1.,0.,0.));
#142=DIRECTION('center_axis',(0.,0.,-1.));
#143=DIRECTION('ref_axis',(1.,0.,0.));
#144=DIRECTION('center_axis',(1.22464679914735E-16,-1.,0.));
#145=DIRECTION('ref_axis',(-1.,-1.22464679914735E-16,0.));
#146=DIRECTION('center_axis',(0.,0.,1.));
#147=DIRECTION('ref_axis',(1.,0.,0.));
#148=DIRECTION('center_axis',(0.,0.,1.));
#149=DIRECTION('ref_axis',(1.,0.,0.));
#150=DIRECTION('',(0.,0.,-1.));
#151=DIRECTION('center_axis',(0.,0.,-1.));
#152=DIRECTION('ref_axis',(1.,0.,0.));
#153=DIRECTION('center_axis',(0.,0.,1.));
#154=DIRECTION('ref_axis',(1.,0.,0.));
#155=DIRECTION('center_axis',(0.,0.,1.));
#156=DIRECTION('ref_axis',(1.,0.,0.));
#157=DIRECTION('center_axis',(0.,0.,-1.));
#158=DIRECTION('ref_axis',(1.,0.,0.));
#159=DIRECTION('',(0.707106781186548,8.65956056235494E-17,-0.707106781186547));
#160=DIRECTION('center_axis',(0.,0.,1.));
#161=DIRECTION('ref_axis',(1.,0.,0.));
#162=DIRECTION('center_axis',(0.,0.,1.));
#163=DIRECTION('ref_axis',(1.,0.,0.));
#164=DIRECTION('center_axis',(0.,0.,1.));
#165=DIRECTION('ref_axis',(1.,0.,0.));
#166=DIRECTION('',(0.,0.,-1.));
#167=DIRECTION('center_axis',(0.,0.,1.));
#168=DIRECTION('ref_axis',(1.,0.,0.));
#169=DIRECTION('center_axis',(0.,0.,-1.));
#170=DIRECTION('ref_axis',(1.,0.,0.));
#171=DIRECTION('center_axis',(0.,0.,-1.));
#172=DIRECTION('ref_axis',(1.,0.,0.));
#173=DIRECTION('',(-0.707106781186548,-8.65956056235494E-17,-0.707106781186547));
#174=DIRECTION('center_axis',(0.,0.,1.));
#175=DIRECTION('ref_axis',(1.,0.,0.));
#176=CARTESIAN_POINT('',(0.,0.,0.));
#177=CARTESIAN_POINT('Origin',(0.,0.,22.5));
#178=CARTESIAN_POINT('',(-7.,8.57252759403147E-16,23.5));
#179=CARTESIAN_POINT('Origin',(0.,0.,23.5));
#180=CARTESIAN_POINT('',(-8.,-9.79717439317883E-16,22.5));
#181=CARTESIAN_POINT('Origin',(-7.,-8.57252759403147E-16,22.5));
#182=CARTESIAN_POINT('Origin',(0.,0.,22.5));
#183=CARTESIAN_POINT('Origin',(0.,0.,6.));
#184=CARTESIAN_POINT('',(-8.,-9.79717439317883E-16,6.));
#185=CARTESIAN_POINT('',(-8.,-9.79717439317883E-16,6.));
#186=CARTESIAN_POINT('Origin',(0.,0.,6.));
#187=CARTESIAN_POINT('Origin',(0.,0.,23.5));
#188=CARTESIAN_POINT('Origin',(0.,0.,0.5));
#189=CARTESIAN_POINT('',(-15.,1.83697019872103E-15,1.));
#190=CARTESIAN_POINT('Origin',(0.,0.,1.));
#191=CARTESIAN_POINT('',(-14.,-1.71450551880629E-15,0.));
#192=CARTESIAN_POINT('',(-14.5,-1.77573785876366E-15,0.5));
#193=CARTESIAN_POINT('Origin',(0.,0.,0.));
#194=CARTESIAN_POINT('Origin',(0.,0.,0.));
#195=CARTESIAN_POINT('',(-15.,-1.83697019872103E-15,5.));
#196=CARTESIAN_POINT('Origin',(0.,0.,5.));
#197=CARTESIAN_POINT('',(-15.,-1.83697019872103E-15,0.));
#198=CARTESIAN_POINT('Origin',(0.,0.,0.));
#199=CARTESIAN_POINT('Origin',(0.,0.,5.5));
#200=CARTESIAN_POINT('',(-14.,1.71450551880629E-15,6.));
#201=CARTESIAN_POINT('Origin',(0.,0.,6.));
#202=CARTESIAN_POINT('',(-14.5,-1.77573785876366E-15,5.5));
#203=CARTESIAN_POINT('Origin',(0.,0.,6.));
#204=UNCERTAINTY_MEASURE_WITH_UNIT(LENGTH_MEASURE(0.01),#208,
'DISTANCE_ACCURACY_VALUE',
'Maximum model space distance between geometric entities at asserted c
onnectivities');
#205=UNCERTAINTY_MEASURE_WITH_UNIT(LENGTH_MEASURE(0.01),#208,
'DISTANCE_ACCURACY_VALUE',
'Maximum model space distance between geometric entities at asserted c
onnectivities');
#206=(
GEOMETRIC_REPRESENTATION_CONTEXT(3)
GLOBAL_UNCERTAINTY_ASSIGNED_CONTEXT((#204))
GLOBAL_UNIT_ASSIGNED_CONTEXT((#208,#210,#211))
REPRESENTATION_CONTEXT('','3D')
);
#207=(
GEOMETRIC_REPRESENTATION_CONTEXT(3)
GLOBAL_UNCERTAINTY_ASSIGNED_CONTEXT((#205))
GLOBAL_UNIT_ASSIGNED_CONTEXT((#208,#210,#211))
REPRESENTATION_CONTEXT('','3D')
);
#208=(
LENGTH_UNIT()
NAMED_UNIT(*)
SI_UNIT(.MILLI.,.METRE.)
);
#209=(
LENGTH_UNIT()
NAMED_UNIT(*)
SI_UNIT($,.METRE.)
);
#210=(
NAMED_UNIT(*)
PLANE_ANGLE_UNIT()
SI_UNIT($,.RADIAN.)
);
#211=(
NAMED_UNIT(*)
SI_UNIT($,.STERADIAN.)
SOLID_ANGLE_UNIT()
);
#212=SHAPE_DEFINITION_REPRESENTATION(#213,#214);
#213=PRODUCT_DEFINITION_SHAPE('',$,#216);
#214=SHAPE_REPRESENTATION('',(#121),#206);
#215=PRODUCT_DEFINITION_CONTEXT('part definition',#220,'design');
#216=PRODUCT_DEFINITION('base serre joint','base serre joint v1',#217,#215);
#217=PRODUCT_DEFINITION_FORMATION('',$,#222);
#218=PRODUCT_RELATED_PRODUCT_CATEGORY('base serre joint v1',
'base serre joint v1',(#222));
#219=APPLICATION_PROTOCOL_DEFINITION('international standard',
'automotive_design',2009,#220);
#220=APPLICATION_CONTEXT(
'Core Data for Automotive Mechanical Design Process');
#221=PRODUCT_CONTEXT('part definition',#220,'mechanical');
#222=PRODUCT('base serre joint','base serre joint v1',$,(#221));
#223=PRESENTATION_STYLE_ASSIGNMENT((#224));
#224=SURFACE_STYLE_USAGE(.BOTH.,#225);
#225=SURFACE_SIDE_STYLE('',(#226));
#226=SURFACE_STYLE_FILL_AREA(#227);
#227=FILL_AREA_STYLE('Steel - Satin',(#228));
#228=FILL_AREA_STYLE_COLOUR('Steel - Satin',#229);
#229=COLOUR_RGB('Steel - Satin',0.627450980392157,0.627450980392157,0.627450980392157);
ENDSEC;
END-ISO-10303-21;
