ISO-10303-21;
HEADER;
FILE_DESCRIPTION (( 'STEP AP214' ),
    '1' );
FILE_NAME ('arbre _moteur_190Kv.STEP',
    '2020-07-14T15:29:52',
    ( '' ),
    ( '' ),
    'SwSTEP 2.0',
    'SolidWorks 2018',
    '' );
FILE_SCHEMA (( 'AUTOMOTIVE_DESIGN' ));
ENDSEC;

DATA;
#1 = CARTESIAN_POINT ( 'NONE',  ( 4.500000000000001776, 0.0000000000000000000, 2.000000000000001776 ) ) ;
#2 = ORIENTED_EDGE ( 'NONE', *, *, #286, .F. ) ;
#3 = CARTESIAN_POINT ( 'NONE',  ( 0.0000000000000000000, 0.0000000000000000000, 2.000000000000001776 ) ) ;
#4 =( NAMED_UNIT ( * ) SI_UNIT ( $, .STERADIAN. ) SOLID_ANGLE_UNIT ( ) );
#5 = DIRECTION ( 'NONE',  ( 0.0000000000000000000, 0.0000000000000000000, 1.000000000000000000 ) ) ;
#6 = PRODUCT_RELATED_PRODUCT_CATEGORY ( 'part', '', ( #73 ) ) ;
#7 = EDGE_CURVE ( 'NONE', #95, #95, #334, .T. ) ;
#8 = FACE_BOUND ( 'NONE', #226, .T. ) ;
#9 = AXIS2_PLACEMENT_3D ( 'NONE', #248, #279, #111 ) ;
#10 =( NAMED_UNIT ( * ) PLANE_ANGLE_UNIT ( ) SI_UNIT ( $, .RADIAN. ) );
#11 = AXIS2_PLACEMENT_3D ( 'NONE', #372, #59, #313 ) ;
#12 = CARTESIAN_POINT ( 'NONE',  ( -2.179449471770337876, -4.500000000000000000, 77.00000000000000000 ) ) ;
#13 = VECTOR ( 'NONE', #306, 1000.000000000000000 ) ;
#14 = DIRECTION ( 'NONE',  ( 1.000000000000000000, 0.0000000000000000000, 0.0000000000000000000 ) ) ;
#15 = AXIS2_PLACEMENT_3D ( 'NONE', #288, #118, #319 ) ;
#16 = ADVANCED_FACE ( 'NONE', ( #140 ), #172, .T. ) ;
#17 = VERTEX_POINT ( 'NONE', #12 ) ;
#18 = ORIENTED_EDGE ( 'NONE', *, *, #165, .T. ) ;
#19 = DIRECTION ( 'NONE',  ( 0.0000000000000000000, -0.0000000000000000000, 1.000000000000000000 ) ) ;
#20 = DIRECTION ( 'NONE',  ( 0.0000000000000000000, 1.000000000000000000, 0.0000000000000000000 ) ) ;
#21 = ORIENTED_EDGE ( 'NONE', *, *, #259, .T. ) ;
#22 = ORIENTED_EDGE ( 'NONE', *, *, #7, .F. ) ;
#23 = CARTESIAN_POINT ( 'NONE',  ( -2.179449471770337876, 4.500000000000000000, 84.00000000000000000 ) ) ;
#24 = ORIENTED_EDGE ( 'NONE', *, *, #123, .F. ) ;
#25 = CONICAL_SURFACE ( 'NONE', #325, 5.000000000000000000, 0.7853981633974642662 ) ;
#26 = EDGE_CURVE ( 'NONE', #264, #17, #100, .T. ) ;
#27 = PRESENTATION_LAYER_ASSIGNMENT (  '', '', ( #293 ) ) ;
#28 = AXIS2_PLACEMENT_3D ( 'NONE', #116, #262, #229 ) ;
#29 = CARTESIAN_POINT ( 'NONE',  ( -8.752504016146744448, 4.500000000000000000, 77.00000000000000000 ) ) ;
#30 = VERTEX_POINT ( 'NONE', #66 ) ;
#31 = CARTESIAN_POINT ( 'NONE',  ( -2.179449471770337876, -4.500000000000000000, 84.00000000000000000 ) ) ;
#32 = CYLINDRICAL_SURFACE ( 'NONE', #203, 4.500000000000001776 ) ;
#33 = CARTESIAN_POINT ( 'NONE',  ( -5.000000000000000000, 0.0000000000000000000, 1.000000000000000888 ) ) ;
#34 = CARTESIAN_POINT ( 'NONE',  ( 0.0000000000000000000, 0.0000000000000000000, 120.0000000000000000 ) ) ;
#35 = EDGE_CURVE ( 'NONE', #134, #134, #322, .T. ) ;
#36 = CARTESIAN_POINT ( 'NONE',  ( 0.0000000000000000000, 0.0000000000000000000, 0.0000000000000000000 ) ) ;
#37 = ORIENTED_EDGE ( 'NONE', *, *, #286, .T. ) ;
#38 = DIRECTION ( 'NONE',  ( 0.0000000000000000000, 0.0000000000000000000, 1.000000000000000000 ) ) ;
#39 = VERTEX_POINT ( 'NONE', #144 ) ;
#40 = AXIS2_PLACEMENT_3D ( 'NONE', #104, #20, #19 ) ;
#41 = FILL_AREA_STYLE_COLOUR ( '', #261 ) ;
#42 = CARTESIAN_POINT ( 'NONE',  ( 0.0000000000000000000, 0.0000000000000000000, 0.0000000000000000000 ) ) ;
#43 = ORIENTED_EDGE ( 'NONE', *, *, #123, .T. ) ;
#44 = SURFACE_SIDE_STYLE ('',( #112 ) ) ;
#45 = VECTOR ( 'NONE', #309, 1000.000000000000000 ) ;
#46 = DIRECTION ( 'NONE',  ( 0.0000000000000000000, 0.0000000000000000000, 1.000000000000000000 ) ) ;
#47 = VERTEX_POINT ( 'NONE', #355 ) ;
#48 = EDGE_CURVE ( 'NONE', #114, #47, #94, .T. ) ;
#49 = ADVANCED_FACE ( 'NONE', ( #8, #337 ), #367, .F. ) ;
#50 = UNCERTAINTY_MEASURE_WITH_UNIT (LENGTH_MEASURE( 1.000000000000000082E-05 ), #143, 'distance_accuracy_value', 'NONE');
#51 = AXIS2_PLACEMENT_3D ( 'NONE', #36, #223, #287 ) ;
#52 = DIRECTION ( 'NONE',  ( 1.000000000000000000, 0.0000000000000000000, 0.0000000000000000000 ) ) ;
#53 = LINE ( 'NONE', #29, #45 ) ;
#54 = DIRECTION ( 'NONE',  ( 0.0000000000000000000, 0.0000000000000000000, 1.000000000000000000 ) ) ;
#55 = DIRECTION ( 'NONE',  ( -1.000000000000000000, 0.0000000000000000000, 0.0000000000000000000 ) ) ;
#56 = EDGE_LOOP ( 'NONE', ( #92, #291 ) ) ;
#57 = AXIS2_PLACEMENT_3D ( 'NONE', #370, #54, #76 ) ;
#58 = DIRECTION ( 'NONE',  ( 0.0000000000000000000, 0.0000000000000000000, -1.000000000000000000 ) ) ;
#59 = DIRECTION ( 'NONE',  ( -0.0000000000000000000, -0.0000000000000000000, 1.000000000000000000 ) ) ;
#60 = VECTOR ( 'NONE', #5, 1000.000000000000000 ) ;
#61 = CIRCLE ( 'NONE', #366, 4.500000000000001776 ) ;
#62 = FILL_AREA_STYLE ('',( #136 ) ) ;
#63 =( LENGTH_UNIT ( ) NAMED_UNIT ( * ) SI_UNIT ( .MILLI., .METRE. ) );
#64 = ORIENTED_EDGE ( 'NONE', *, *, #26, .T. ) ;
#65 = PLANE ( 'NONE',  #228 ) ;
#66 = CARTESIAN_POINT ( 'NONE',  ( 2.179449471770337876, -4.500000000000000000, 84.00000000000000000 ) ) ;
#67 = DIRECTION ( 'NONE',  ( -1.000000000000000000, 0.0000000000000000000, -0.0000000000000000000 ) ) ;
#68 = AXIS2_PLACEMENT_3D ( 'NONE', #34, #121, #202 ) ;
#69 = DIRECTION ( 'NONE',  ( 0.0000000000000000000, 0.0000000000000000000, 1.000000000000000000 ) ) ;
#70 = EDGE_LOOP ( 'NONE', ( #81 ) ) ;
#71 = DIRECTION ( 'NONE',  ( 0.0000000000000000000, -0.0000000000000000000, 1.000000000000000000 ) ) ;
#72 = ORIENTED_EDGE ( 'NONE', *, *, #278, .T. ) ;
#73 = PRODUCT ( 'arbre _moteur_190Kv', 'arbre _moteur_190Kv', '', ( #151 ) ) ;
#74 = FACE_OUTER_BOUND ( 'NONE', #70, .T. ) ;
#75 = FACE_BOUND ( 'NONE', #117, .T. ) ;
#76 = DIRECTION ( 'NONE',  ( 1.000000000000000000, 0.0000000000000000000, -0.0000000000000000000 ) ) ;
#77 = ADVANCED_FACE ( 'NONE', ( #75, #175 ), #25, .T. ) ;
#78 = SURFACE_STYLE_FILL_AREA ( #62 ) ;
#79 = DIRECTION ( 'NONE',  ( -0.0000000000000000000, -0.0000000000000000000, 1.000000000000000000 ) ) ;
#80 = EDGE_LOOP ( 'NONE', ( #154, #302, #212, #37 ) ) ;
#81 = ORIENTED_EDGE ( 'NONE', *, *, #165, .F. ) ;
#82 = EDGE_CURVE ( 'NONE', #114, #47, #296, .T. ) ;
#83 = AXIS2_PLACEMENT_3D ( 'NONE', #139, #214, #281 ) ;
#84 = DIRECTION ( 'NONE',  ( -1.000000000000000000, 0.0000000000000000000, 0.0000000000000000000 ) ) ;
#85 = CARTESIAN_POINT ( 'NONE',  ( 0.0000000000000000000, 0.0000000000000000000, 1.000000000000000888 ) ) ;
#86 = VERTEX_POINT ( 'NONE', #33 ) ;
#87 = DIRECTION ( 'NONE',  ( -1.000000000000000000, 0.0000000000000000000, 0.0000000000000000000 ) ) ;
#88 = LINE ( 'NONE', #132, #13 ) ;
#89 = DIRECTION ( 'NONE',  ( 1.000000000000000000, 0.0000000000000000000, 0.0000000000000000000 ) ) ;
#90 = FACE_BOUND ( 'NONE', #80, .T. ) ;
#91 = CARTESIAN_POINT ( 'NONE',  ( 4.700000000000051692, 0.0000000000000000000, 120.0000000000000000 ) ) ;
#92 = ORIENTED_EDGE ( 'NONE', *, *, #305, .T. ) ;
#93 = AXIS2_PLACEMENT_3D ( 'NONE', #217, #250, #347 ) ;
#94 = LINE ( 'NONE', #327, #308 ) ;
#95 = VERTEX_POINT ( 'NONE', #199 ) ;
#96 = ORIENTED_EDGE ( 'NONE', *, *, #371, .T. ) ;
#97 = FACE_BOUND ( 'NONE', #105, .T. ) ;
#98 = ADVANCED_FACE ( 'NONE', ( #249 ), #106, .T. ) ;
#99 = ORIENTED_EDGE ( 'NONE', *, *, #215, .F. ) ;
#100 = LINE ( 'NONE', #256, #234 ) ;
#101 = AXIS2_PLACEMENT_3D ( 'NONE', #176, #38, #141 ) ;
#102 = PRODUCT_DEFINITION_CONTEXT ( 'detailed design', #149, 'design' ) ;
#103 = EDGE_CURVE ( 'NONE', #307, #17, #88, .T. ) ;
#104 = CARTESIAN_POINT ( 'NONE',  ( 0.0000000000000000000, 4.500000000000000000, 0.0000000000000000000 ) ) ;
#105 = EDGE_LOOP ( 'NONE', ( #24, #353, #205, #320 ) ) ;
#106 = PLANE ( 'NONE',  #40 ) ;
#107 = DIRECTION ( 'NONE',  ( -0.0000000000000000000, -0.0000000000000000000, -1.000000000000000000 ) ) ;
#108 = EDGE_LOOP ( 'NONE', ( #282 ) ) ;
#109 = ORIENTED_EDGE ( 'NONE', *, *, #35, .T. ) ;
#110 = EDGE_CURVE ( 'NONE', #264, #30, #239, .T. ) ;
#111 = DIRECTION ( 'NONE',  ( -1.000000000000000000, 0.0000000000000000000, -0.0000000000000000000 ) ) ;
#112 = SURFACE_STYLE_FILL_AREA ( #232 ) ;
#113 = FACE_OUTER_BOUND ( 'NONE', #135, .T. ) ;
#114 = VERTEX_POINT ( 'NONE', #23 ) ;
#115 = CARTESIAN_POINT ( 'NONE',  ( 0.0000000000000000000, 0.0000000000000000000, 2.000000000000001776 ) ) ;
#116 = CARTESIAN_POINT ( 'NONE',  ( 0.0000000000000000000, 0.0000000000000000000, 0.0000000000000000000 ) ) ;
#117 = EDGE_LOOP ( 'NONE', ( #22 ) ) ;
#118 = DIRECTION ( 'NONE',  ( 0.0000000000000000000, 0.0000000000000000000, -1.000000000000000000 ) ) ;
#119 = APPLICATION_CONTEXT ( 'automotive_design' ) ;
#120 = DIRECTION ( 'NONE',  ( -1.000000000000000000, 0.0000000000000000000, -0.0000000000000000000 ) ) ;
#121 = DIRECTION ( 'NONE',  ( 0.0000000000000000000, 0.0000000000000000000, -1.000000000000000000 ) ) ;
#122 = PRESENTATION_LAYER_ASSIGNMENT (  '', '', ( #365 ) ) ;
#123 = EDGE_CURVE ( 'NONE', #47, #39, #369, .T. ) ;
#124 = VERTEX_POINT ( 'NONE', #171 ) ;
#125 = DIRECTION ( 'NONE',  ( 1.000000000000000000, 0.0000000000000000000, 0.0000000000000000000 ) ) ;
#126 = FACE_OUTER_BOUND ( 'NONE', #174, .T. ) ;
#127 = EDGE_LOOP ( 'NONE', ( #193 ) ) ;
#128 = ADVANCED_FACE ( 'NONE', ( #74, #294 ), #32, .T. ) ;
#129 = ADVANCED_FACE ( 'NONE', ( #231 ), #339, .T. ) ;
#130 = FACE_BOUND ( 'NONE', #133, .T. ) ;
#131 = EDGE_LOOP ( 'NONE', ( #242 ) ) ;
#132 = CARTESIAN_POINT ( 'NONE',  ( -2.179449471770337432, -4.500000000000000000, 120.0000000000000000 ) ) ;
#133 = EDGE_LOOP ( 'NONE', ( #361 ) ) ;
#134 = VERTEX_POINT ( 'NONE', #91 ) ;
#135 = EDGE_LOOP ( 'NONE', ( #253 ) ) ;
#136 = FILL_AREA_STYLE_COLOUR ( '', #304 ) ;
#137 = DIRECTION ( 'NONE',  ( 1.000000000000000000, 0.0000000000000000000, 0.0000000000000000000 ) ) ;
#138 = CIRCLE ( 'NONE', #93, 5.000000000000000000 ) ;
#139 = CARTESIAN_POINT ( 'NONE',  ( 0.0000000000000000000, -4.500000000000000000, 0.0000000000000000000 ) ) ;
#140 = FACE_OUTER_BOUND ( 'NONE', #267, .T. ) ;
#141 = DIRECTION ( 'NONE',  ( 1.000000000000000000, 0.0000000000000000000, 0.0000000000000000000 ) ) ;
#142 = CARTESIAN_POINT ( 'NONE',  ( -2.179449471770337432, 4.500000000000000000, 120.0000000000000000 ) ) ;
#143 =( LENGTH_UNIT ( ) NAMED_UNIT ( * ) SI_UNIT ( .MILLI., .METRE. ) );
#144 = CARTESIAN_POINT ( 'NONE',  ( 2.179449471770337876, 4.500000000000000000, 77.00000000000000000 ) ) ;
#145 = DIRECTION ( 'NONE',  ( 1.000000000000000000, 0.0000000000000000000, 0.0000000000000000000 ) ) ;
#146 = EDGE_LOOP ( 'NONE', ( #362 ) ) ;
#147 = VECTOR ( 'NONE', #300, 1000.000000000000000 ) ;
#148 =( NAMED_UNIT ( * ) PLANE_ANGLE_UNIT ( ) SI_UNIT ( $, .RADIAN. ) );
#149 = APPLICATION_CONTEXT ( 'automotive_design' ) ;
#150 = EDGE_LOOP ( 'NONE', ( #109 ) ) ;
#151 = PRODUCT_CONTEXT ( 'NONE', #119, 'mechanical' ) ;
#152 = FACE_OUTER_BOUND ( 'NONE', #224, .T. ) ;
#153 = PRODUCT_DEFINITION_SHAPE ( 'NONE', 'NONE',  #277 ) ;
#154 = ORIENTED_EDGE ( 'NONE', *, *, #103, .F. ) ;
#155 = VERTEX_POINT ( 'NONE', #275 ) ;
#156 = CARTESIAN_POINT ( 'NONE',  ( 0.0000000000000000000, 0.0000000000000000000, 0.3000000000000085931 ) ) ;
#157 = AXIS2_PLACEMENT_3D ( 'NONE', #280, #312, #137 ) ;
#158 = ADVANCED_FACE ( 'NONE', ( #329 ), #240, .T. ) ;
#159 = EDGE_LOOP ( 'NONE', ( #181 ) ) ;
#160 = CARTESIAN_POINT ( 'NONE',  ( 2.179449471770337432, 4.500000000000000000, 120.0000000000000000 ) ) ;
#161 = FACE_OUTER_BOUND ( 'NONE', #274, .T. ) ;
#162 = PRODUCT_DEFINITION_FORMATION_WITH_SPECIFIED_SOURCE ( 'ANY', '', #73, .NOT_KNOWN. ) ;
#163 = ORIENTED_EDGE ( 'NONE', *, *, #26, .F. ) ;
#164 = ORIENTED_EDGE ( 'NONE', *, *, #103, .T. ) ;
#165 = EDGE_CURVE ( 'NONE', #197, #197, #61, .T. ) ;
#166 = DIRECTION ( 'NONE',  ( 0.0000000000000000000, 0.0000000000000000000, -1.000000000000000000 ) ) ;
#167 = CARTESIAN_POINT ( 'NONE',  ( 2.179449471770337432, -4.500000000000000000, 77.00000000000000000 ) ) ;
#168 = CIRCLE ( 'NONE', #323, 5.000000000000000000 ) ;
#169 = DIRECTION ( 'NONE',  ( 1.000000000000000000, 0.0000000000000000000, -0.0000000000000000000 ) ) ;
#170 = CYLINDRICAL_SURFACE ( 'NONE', #178, 5.000000000000000000 ) ;
#171 = CARTESIAN_POINT ( 'NONE',  ( 4.500000000000001776, 0.0000000000000000000, 1.000000000000000888 ) ) ;
#172 = PLANE ( 'NONE',  #15 ) ;
#173 =( NAMED_UNIT ( * ) PLANE_ANGLE_UNIT ( ) SI_UNIT ( $, .RADIAN. ) );
#174 = EDGE_LOOP ( 'NONE', ( #72 ) ) ;
#175 = FACE_OUTER_BOUND ( 'NONE', #108, .T. ) ;
#176 = CARTESIAN_POINT ( 'NONE',  ( 0.0000000000000000000, 0.0000000000000000000, 84.00000000000000000 ) ) ;
#177 = UNCERTAINTY_MEASURE_WITH_UNIT (LENGTH_MEASURE( 1.000000000000000082E-05 ), #265, 'distance_accuracy_value', 'NONE');
#178 = AXIS2_PLACEMENT_3D ( 'NONE', #376, #349, #84 ) ;
#179 = APPLICATION_PROTOCOL_DEFINITION ( 'draft international standard', 'automotive_design', 1998, #149 ) ;
#180 = ORIENTED_EDGE ( 'NONE', *, *, #48, .T. ) ;
#181 = ORIENTED_EDGE ( 'NONE', *, *, #215, .T. ) ;
#182 = SHAPE_DEFINITION_REPRESENTATION ( #153, #343 ) ;
#183 =( GEOMETRIC_REPRESENTATION_CONTEXT ( 3 ) GLOBAL_UNCERTAINTY_ASSIGNED_CONTEXT ( ( #283 ) ) GLOBAL_UNIT_ASSIGNED_CONTEXT ( ( #63, #173, #317 ) ) REPRESENTATION_CONTEXT ( 'NONE', 'WORKASPACE' ) );
#184 = EDGE_CURVE ( 'NONE', #368, #368, #138, .T. ) ;
#185 = CYLINDRICAL_SURFACE ( 'NONE', #201, 5.000000000000000000 ) ;
#186 = DIRECTION ( 'NONE',  ( -0.0000000000000000000, -0.0000000000000000000, 1.000000000000000000 ) ) ;
#187 = DIRECTION ( 'NONE',  ( 0.0000000000000000000, 0.0000000000000000000, -1.000000000000000000 ) ) ;
#188 = FACE_OUTER_BOUND ( 'NONE', #127, .T. ) ;
#189 = ORIENTED_EDGE ( 'NONE', *, *, #259, .F. ) ;
#190 = CARTESIAN_POINT ( 'NONE',  ( 0.0000000000000000000, 0.0000000000000000000, 84.00000000000000000 ) ) ;
#191 = VECTOR ( 'NONE', #350, 1000.000000000000000 ) ;
#192 = DIRECTION ( 'NONE',  ( 1.000000000000000000, 0.0000000000000000000, 0.0000000000000000000 ) ) ;
#193 = ORIENTED_EDGE ( 'NONE', *, *, #7, .T. ) ;
#194 = DIRECTION ( 'NONE',  ( -0.0000000000000000000, -0.0000000000000000000, -1.000000000000000000 ) ) ;
#195 =( GEOMETRIC_REPRESENTATION_CONTEXT ( 3 ) GLOBAL_UNCERTAINTY_ASSIGNED_CONTEXT ( ( #50 ) ) GLOBAL_UNIT_ASSIGNED_CONTEXT ( ( #143, #10, #4 ) ) REPRESENTATION_CONTEXT ( 'NONE', 'WORKASPACE' ) );
#196 = DIRECTION ( 'NONE',  ( 1.000000000000000000, 0.0000000000000000000, 0.0000000000000000000 ) ) ;
#197 = VERTEX_POINT ( 'NONE', #1 ) ;
#198 = DIRECTION ( 'NONE',  ( -1.000000000000000000, 0.0000000000000000000, 0.0000000000000000000 ) ) ;
#199 = CARTESIAN_POINT ( 'NONE',  ( 4.699999999999981526, 0.0000000000000000000, 0.0000000000000000000 ) ) ;
#200 = ORIENTED_EDGE ( 'NONE', *, *, #110, .T. ) ;
#201 = AXIS2_PLACEMENT_3D ( 'NONE', #246, #194, #198 ) ;
#202 = DIRECTION ( 'NONE',  ( -1.000000000000000000, 0.0000000000000000000, 0.0000000000000000000 ) ) ;
#203 = AXIS2_PLACEMENT_3D ( 'NONE', #211, #272, #192 ) ;
#204 = DIRECTION ( 'NONE',  ( 1.000000000000000000, 0.0000000000000000000, 0.0000000000000000000 ) ) ;
#205 = ORIENTED_EDGE ( 'NONE', *, *, #371, .F. ) ;
#206 = VECTOR ( 'NONE', #107, 1000.000000000000000 ) ;
#207 = EDGE_LOOP ( 'NONE', ( #21, #233 ) ) ;
#208 = APPLICATION_PROTOCOL_DEFINITION ( 'draft international standard', 'automotive_design', 1998, #119 ) ;
#209 = FACE_OUTER_BOUND ( 'NONE', #131, .T. ) ;
#210 = EDGE_LOOP ( 'NONE', ( #315 ) ) ;
#211 = CARTESIAN_POINT ( 'NONE',  ( 0.0000000000000000000, 0.0000000000000000000, 120.0000000000000000 ) ) ;
#212 = ORIENTED_EDGE ( 'NONE', *, *, #110, .F. ) ;
#213 = MECHANICAL_DESIGN_GEOMETRIC_PRESENTATION_REPRESENTATION (  '', ( #365 ), #195 ) ;
#214 = DIRECTION ( 'NONE',  ( 0.0000000000000000000, -1.000000000000000000, 0.0000000000000000000 ) ) ;
#215 = EDGE_CURVE ( 'NONE', #124, #124, #360, .T. ) ;
#216 = CARTESIAN_POINT ( 'NONE',  ( 0.0000000000000000000, 0.0000000000000000000, 77.00000000000000000 ) ) ;
#217 = CARTESIAN_POINT ( 'NONE',  ( 0.0000000000000000000, 0.0000000000000000000, 119.7000000000000455 ) ) ;
#218 = CLOSED_SHELL ( 'NONE', ( #297, #129, #49, #338, #128, #363, #237, #77, #335, #16, #341, #98, #303, #364, #158 ) ) ;
#219 = ORIENTED_EDGE ( 'NONE', *, *, #184, .T. ) ;
#220 = CARTESIAN_POINT ( 'NONE',  ( 5.000000000000000000, 0.0000000000000000000, 0.3000000000000085931 ) ) ;
#221 = LINE ( 'NONE', #316, #191 ) ;
#222 = CARTESIAN_POINT ( 'NONE',  ( 6.000000000000001776, 0.0000000000000000000, 1.000000000000000000 ) ) ;
#223 = DIRECTION ( 'NONE',  ( -0.0000000000000000000, -0.0000000000000000000, -1.000000000000000000 ) ) ;
#224 = EDGE_LOOP ( 'NONE', ( #64, #2 ) ) ;
#225 = SURFACE_SIDE_STYLE ('',( #78 ) ) ;
#226 = EDGE_LOOP ( 'NONE', ( #18 ) ) ;
#227 = CARTESIAN_POINT ( 'NONE',  ( 5.000000000000000000, 0.0000000000000000000, 119.7000000000000455 ) ) ;
#228 = AXIS2_PLACEMENT_3D ( 'NONE', #222, #251, #67 ) ;
#229 = DIRECTION ( 'NONE',  ( 1.000000000000000000, 0.0000000000000000000, 0.0000000000000000000 ) ) ;
#230 = ORIENTED_EDGE ( 'NONE', *, *, #82, .T. ) ;
#231 = FACE_OUTER_BOUND ( 'NONE', #150, .T. ) ;
#232 = FILL_AREA_STYLE ('',( #41 ) ) ;
#233 = ORIENTED_EDGE ( 'NONE', *, *, #344, .F. ) ;
#234 = VECTOR ( 'NONE', #120, 1000.000000000000000 ) ;
#235 = MECHANICAL_DESIGN_GEOMETRIC_PRESENTATION_REPRESENTATION (  '', ( #293 ), #257 ) ;
#236 = AXIS2_PLACEMENT_3D ( 'NONE', #331, #71, #14 ) ;
#237 = ADVANCED_FACE ( 'NONE', ( #271, #126 ), #170, .T. ) ;
#238 = CIRCLE ( 'NONE', #101, 5.000000000000000000 ) ;
#239 = LINE ( 'NONE', #299, #147 ) ;
#240 = PLANE ( 'NONE',  #83 ) ;
#241 = EDGE_LOOP ( 'NONE', ( #43, #333, #96, #180 ) ) ;
#242 = ORIENTED_EDGE ( 'NONE', *, *, #184, .F. ) ;
#243 = DIRECTION ( 'NONE',  ( -1.000000000000000000, 0.0000000000000000000, 0.0000000000000000000 ) ) ;
#244 = CIRCLE ( 'NONE', #375, 5.000000000000000000 ) ;
#245 = AXIS2_PLACEMENT_3D ( 'NONE', #255, #324, #89 ) ;
#246 = CARTESIAN_POINT ( 'NONE',  ( 0.0000000000000000000, 0.0000000000000000000, 120.0000000000000000 ) ) ;
#247 = LINE ( 'NONE', #142, #60 ) ;
#248 = CARTESIAN_POINT ( 'NONE',  ( -8.752504016146744448, -7.500000000000000000, 77.00000000000000000 ) ) ;
#249 = FACE_OUTER_BOUND ( 'NONE', #241, .T. ) ;
#250 = DIRECTION ( 'NONE',  ( 0.0000000000000000000, 0.0000000000000000000, -1.000000000000000000 ) ) ;
#251 = DIRECTION ( 'NONE',  ( 0.0000000000000000000, 0.0000000000000000000, -1.000000000000000000 ) ) ;
#252 = DIRECTION ( 'NONE',  ( -0.0000000000000000000, -0.0000000000000000000, 1.000000000000000000 ) ) ;
#253 = ORIENTED_EDGE ( 'NONE', *, *, #278, .F. ) ;
#254 = EDGE_LOOP ( 'NONE', ( #164, #163, #200, #189 ) ) ;
#255 = CARTESIAN_POINT ( 'NONE',  ( -8.752504016146744448, 7.500000000000000000, 77.00000000000000000 ) ) ;
#256 = CARTESIAN_POINT ( 'NONE',  ( -8.752504016146744448, -4.500000000000000000, 77.00000000000000000 ) ) ;
#257 =( GEOMETRIC_REPRESENTATION_CONTEXT ( 3 ) GLOBAL_UNCERTAINTY_ASSIGNED_CONTEXT ( ( #177 ) ) GLOBAL_UNIT_ASSIGNED_CONTEXT ( ( #265, #148, #358 ) ) REPRESENTATION_CONTEXT ( 'NONE', 'WORKASPACE' ) );
#258 = PRESENTATION_STYLE_ASSIGNMENT (( #321 ) ) ;
#259 = EDGE_CURVE ( 'NONE', #307, #30, #221, .T. ) ;
#260 = CARTESIAN_POINT ( 'NONE',  ( -8.752504016146744448, -7.500000000000000000, 84.00000000000000000 ) ) ;
#261 = COLOUR_RGB ( '',0.7921568627450980005, 0.8196078431372548767, 0.9333333333333333481 ) ;
#262 = DIRECTION ( 'NONE',  ( 0.0000000000000000000, 0.0000000000000000000, 1.000000000000000000 ) ) ;
#263 = FACE_BOUND ( 'NONE', #295, .T. ) ;
#264 = VERTEX_POINT ( 'NONE', #167 ) ;
#265 =( LENGTH_UNIT ( ) NAMED_UNIT ( * ) SI_UNIT ( .MILLI., .METRE. ) );
#266 = CIRCLE ( 'NONE', #345, 5.000000000000000000 ) ;
#267 = EDGE_LOOP ( 'NONE', ( #230, #374 ) ) ;
#268 = SURFACE_STYLE_USAGE ( .BOTH. , #44 ) ;
#269 = DIRECTION ( 'NONE',  ( 1.000000000000000000, 0.0000000000000000000, 0.0000000000000000000 ) ) ;
#270 = FACE_OUTER_BOUND ( 'NONE', #207, .T. ) ;
#271 = FACE_OUTER_BOUND ( 'NONE', #146, .T. ) ;
#272 = DIRECTION ( 'NONE',  ( -0.0000000000000000000, -0.0000000000000000000, 1.000000000000000000 ) ) ;
#273 = PRESENTATION_STYLE_ASSIGNMENT (( #268 ) ) ;
#274 = EDGE_LOOP ( 'NONE', ( #219 ) ) ;
#275 = CARTESIAN_POINT ( 'NONE',  ( -2.179449471770337432, 4.500000000000000000, 77.00000000000000000 ) ) ;
#276 = EDGE_CURVE ( 'NONE', #314, #314, #351, .T. ) ;
#277 = PRODUCT_DEFINITION ( 'UNKNOWN', '', #162, #102 ) ;
#278 = EDGE_CURVE ( 'NONE', #86, #86, #266, .T. ) ;
#279 = DIRECTION ( 'NONE',  ( 0.0000000000000000000, 0.0000000000000000000, -1.000000000000000000 ) ) ;
#280 = CARTESIAN_POINT ( 'NONE',  ( 0.0000000000000000000, 0.0000000000000000000, 0.3000000000000085931 ) ) ;
#281 = DIRECTION ( 'NONE',  ( 0.0000000000000000000, 0.0000000000000000000, 1.000000000000000000 ) ) ;
#282 = ORIENTED_EDGE ( 'NONE', *, *, #276, .F. ) ;
#283 = UNCERTAINTY_MEASURE_WITH_UNIT (LENGTH_MEASURE( 1.000000000000000082E-05 ), #63, 'distance_accuracy_value', 'NONE');
#284 = EDGE_CURVE ( 'NONE', #39, #155, #53, .T. ) ;
#285 = CARTESIAN_POINT ( 'NONE',  ( 5.000000000000000000, 0.0000000000000000000, 2.000000000000001776 ) ) ;
#286 = EDGE_CURVE ( 'NONE', #264, #17, #340, .T. ) ;
#287 = DIRECTION ( 'NONE',  ( 1.000000000000000000, 0.0000000000000000000, 0.0000000000000000000 ) ) ;
#288 = CARTESIAN_POINT ( 'NONE',  ( -8.752504016146744448, 7.500000000000000000, 84.00000000000000000 ) ) ;
#289 = PLANE ( 'NONE',  #336 ) ;
#290 = CONICAL_SURFACE ( 'NONE', #68, 4.700000000000051692, 0.7853981633974410625 ) ;
#291 = ORIENTED_EDGE ( 'NONE', *, *, #284, .F. ) ;
#292 = DIRECTION ( 'NONE',  ( 0.0000000000000000000, 0.0000000000000000000, 1.000000000000000000 ) ) ;
#293 = STYLED_ITEM ( 'NONE', ( #273 ), #343 ) ;
#294 = FACE_OUTER_BOUND ( 'NONE', #159, .T. ) ;
#295 = EDGE_LOOP ( 'NONE', ( #99 ) ) ;
#296 = CIRCLE ( 'NONE', #354, 5.000000000000000000 ) ;
#297 = ADVANCED_FACE ( 'NONE', ( #97, #161, #346, #90 ), #185, .T. ) ;
#298 = AXIS2_PLACEMENT_3D ( 'NONE', #330, #46, #125 ) ;
#299 = CARTESIAN_POINT ( 'NONE',  ( 2.179449471770337432, -4.500000000000000000, 120.0000000000000000 ) ) ;
#300 = DIRECTION ( 'NONE',  ( 0.0000000000000000000, 0.0000000000000000000, 1.000000000000000000 ) ) ;
#301 = VERTEX_POINT ( 'NONE', #285 ) ;
#302 = ORIENTED_EDGE ( 'NONE', *, *, #344, .T. ) ;
#303 = ADVANCED_FACE ( 'NONE', ( #152 ), #373, .F. ) ;
#304 = COLOUR_RGB ( '',0.7921568627450980005, 0.8196078431372548767, 0.9333333333333333481 ) ;
#305 = EDGE_CURVE ( 'NONE', #39, #155, #244, .T. ) ;
#306 = DIRECTION ( 'NONE',  ( -0.0000000000000000000, -0.0000000000000000000, -1.000000000000000000 ) ) ;
#307 = VERTEX_POINT ( 'NONE', #31 ) ;
#308 = VECTOR ( 'NONE', #269, 1000.000000000000000 ) ;
#309 = DIRECTION ( 'NONE',  ( -1.000000000000000000, -0.0000000000000000000, -0.0000000000000000000 ) ) ;
#310 = CARTESIAN_POINT ( 'NONE',  ( 0.0000000000000000000, 0.0000000000000000000, 77.00000000000000000 ) ) ;
#311 = AXIS2_PLACEMENT_3D ( 'NONE', #216, #166, #87 ) ;
#312 = DIRECTION ( 'NONE',  ( -0.0000000000000000000, -0.0000000000000000000, 1.000000000000000000 ) ) ;
#313 = DIRECTION ( 'NONE',  ( 1.000000000000000000, 0.0000000000000000000, 0.0000000000000000000 ) ) ;
#314 = VERTEX_POINT ( 'NONE', #220 ) ;
#315 = ORIENTED_EDGE ( 'NONE', *, *, #348, .F. ) ;
#316 = CARTESIAN_POINT ( 'NONE',  ( -8.752504016146744448, -4.500000000000000000, 84.00000000000000000 ) ) ;
#317 =( NAMED_UNIT ( * ) SI_UNIT ( $, .STERADIAN. ) SOLID_ANGLE_UNIT ( ) );
#318 = PLANE ( 'NONE',  #359 ) ;
#319 = DIRECTION ( 'NONE',  ( -1.000000000000000000, 0.0000000000000000000, -0.0000000000000000000 ) ) ;
#320 = ORIENTED_EDGE ( 'NONE', *, *, #305, .F. ) ;
#321 = SURFACE_STYLE_USAGE ( .BOTH. , #225 ) ;
#322 = CIRCLE ( 'NONE', #298, 4.700000000000051692 ) ;
#323 = AXIS2_PLACEMENT_3D ( 'NONE', #3, #252, #204 ) ;
#324 = DIRECTION ( 'NONE',  ( -0.0000000000000000000, 0.0000000000000000000, 1.000000000000000000 ) ) ;
#325 = AXIS2_PLACEMENT_3D ( 'NONE', #156, #186, #52 ) ;
#326 = FACE_OUTER_BOUND ( 'NONE', #56, .T. ) ;
#327 = CARTESIAN_POINT ( 'NONE',  ( -8.752504016146744448, 4.500000000000000000, 84.00000000000000000 ) ) ;
#328 = EDGE_LOOP ( 'NONE', ( #342 ) ) ;
#329 = FACE_OUTER_BOUND ( 'NONE', #254, .T. ) ;
#330 = CARTESIAN_POINT ( 'NONE',  ( 0.0000000000000000000, 0.0000000000000000000, 120.0000000000000000 ) ) ;
#331 = CARTESIAN_POINT ( 'NONE',  ( 6.000000000000001776, 0.0000000000000000000, 2.000000000000000000 ) ) ;
#332 = MANIFOLD_SOLID_BREP ( 'Symétrie1', #218 ) ;
#333 = ORIENTED_EDGE ( 'NONE', *, *, #284, .T. ) ;
#334 = CIRCLE ( 'NONE', #51, 4.699999999999981526 ) ;
#335 = ADVANCED_FACE ( 'NONE', ( #209, #130 ), #290, .T. ) ;
#336 = AXIS2_PLACEMENT_3D ( 'NONE', #260, #292, #169 ) ;
#337 = FACE_OUTER_BOUND ( 'NONE', #210, .T. ) ;
#338 = ADVANCED_FACE ( 'NONE', ( #263, #113 ), #65, .F. ) ;
#339 = PLANE ( 'NONE',  #57 ) ;
#340 = CIRCLE ( 'NONE', #311, 5.000000000000000000 ) ;
#341 = ADVANCED_FACE ( 'NONE', ( #326 ), #357, .T. ) ;
#342 = ORIENTED_EDGE ( 'NONE', *, *, #348, .T. ) ;
#343 = ADVANCED_BREP_SHAPE_REPRESENTATION ( 'arbre _moteur_190Kv', ( #332, #28 ), #183 ) ;
#344 = EDGE_CURVE ( 'NONE', #307, #30, #238, .T. ) ;
#345 = AXIS2_PLACEMENT_3D ( 'NONE', #85, #58, #243 ) ;
#346 = FACE_OUTER_BOUND ( 'NONE', #328, .T. ) ;
#347 = DIRECTION ( 'NONE',  ( 1.000000000000000000, 0.0000000000000000000, 0.0000000000000000000 ) ) ;
#348 = EDGE_CURVE ( 'NONE', #301, #301, #168, .T. ) ;
#349 = DIRECTION ( 'NONE',  ( -0.0000000000000000000, -0.0000000000000000000, -1.000000000000000000 ) ) ;
#350 = DIRECTION ( 'NONE',  ( 1.000000000000000000, 0.0000000000000000000, 0.0000000000000000000 ) ) ;
#351 = CIRCLE ( 'NONE', #157, 5.000000000000000000 ) ;
#352 = DIRECTION ( 'NONE',  ( 1.000000000000000000, 0.0000000000000000000, -0.0000000000000000000 ) ) ;
#353 = ORIENTED_EDGE ( 'NONE', *, *, #82, .F. ) ;
#354 = AXIS2_PLACEMENT_3D ( 'NONE', #190, #187, #55 ) ;
#355 = CARTESIAN_POINT ( 'NONE',  ( 2.179449471770337876, 4.500000000000000000, 84.00000000000000000 ) ) ;
#356 = DIRECTION ( 'NONE',  ( -0.0000000000000000000, 0.0000000000000000000, 1.000000000000000000 ) ) ;
#357 = PLANE ( 'NONE',  #245 ) ;
#358 =( NAMED_UNIT ( * ) SI_UNIT ( $, .STERADIAN. ) SOLID_ANGLE_UNIT ( ) );
#359 = AXIS2_PLACEMENT_3D ( 'NONE', #42, #69, #352 ) ;
#360 = CIRCLE ( 'NONE', #11, 4.500000000000001776 ) ;
#361 = ORIENTED_EDGE ( 'NONE', *, *, #35, .F. ) ;
#362 = ORIENTED_EDGE ( 'NONE', *, *, #276, .T. ) ;
#363 = ADVANCED_FACE ( 'NONE', ( #188 ), #318, .F. ) ;
#364 = ADVANCED_FACE ( 'NONE', ( #270 ), #289, .F. ) ;
#365 = STYLED_ITEM ( 'NONE', ( #258 ), #332 ) ;
#366 = AXIS2_PLACEMENT_3D ( 'NONE', #115, #79, #196 ) ;
#367 = PLANE ( 'NONE',  #236 ) ;
#368 = VERTEX_POINT ( 'NONE', #227 ) ;
#369 = LINE ( 'NONE', #160, #206 ) ;
#370 = CARTESIAN_POINT ( 'NONE',  ( 0.0000000000000000000, 0.0000000000000000000, 120.0000000000000000 ) ) ;
#371 = EDGE_CURVE ( 'NONE', #155, #114, #247, .T. ) ;
#372 = CARTESIAN_POINT ( 'NONE',  ( 0.0000000000000000000, 0.0000000000000000000, 1.000000000000000888 ) ) ;
#373 = PLANE ( 'NONE',  #9 ) ;
#374 = ORIENTED_EDGE ( 'NONE', *, *, #48, .F. ) ;
#375 = AXIS2_PLACEMENT_3D ( 'NONE', #310, #356, #145 ) ;
#376 = CARTESIAN_POINT ( 'NONE',  ( 0.0000000000000000000, 0.0000000000000000000, 120.0000000000000000 ) ) ;
ENDSEC;
END-ISO-10303-21;
