ISO-10303-21;
HEADER;
FILE_DESCRIPTION (( 'STEP AP214' ),
    '1' );
FILE_NAME ('Cone de serrage.STEP',
    '2020-07-10T10:59:02',
    ( '' ),
    ( '' ),
    'SwSTEP 2.0',
    'SolidWorks 2020',
    '' );
FILE_SCHEMA (( 'AUTOMOTIVE_DESIGN' ));
ENDSEC;

DATA;
#1 = PLANE ( 'NONE',  #112 ) ;
#2 = VECTOR ( 'NONE', #168, 1000.000000000000000 ) ;
#3 = CARTESIAN_POINT ( 'NONE',  ( 20.00000000000000355, 2.449293598294706907E-15, -24.50000000000000000 ) ) ;
#4 = EDGE_LOOP ( 'NONE', ( #119, #109, #252, #130 ) ) ;
#5 = CARTESIAN_POINT ( 'NONE',  ( -1.138921523207036010E-15, -1.402236956192547299E-15, -3.399999999999989697 ) ) ;
#6 = CARTESIAN_POINT ( 'NONE',  ( -1.925929944387235853E-31, -4.750000000000005329, -10.00000000000000000 ) ) ;
#7 = UNCERTAINTY_MEASURE_WITH_UNIT (LENGTH_MEASURE( 1.000000000000000082E-05 ), #192, 'distance_accuracy_value', 'NONE');
#8 = DIRECTION ( 'NONE',  ( -1.000000000000000000, -1.224646799147353207E-16, -0.0000000000000000000 ) ) ;
#9 = VERTEX_POINT ( 'NONE', #49 ) ;
#10 = VECTOR ( 'NONE', #131, 1000.000000000000000 ) ;
#11 = PRODUCT_DEFINITION ( 'UNKNOWN', '', #68, #161 ) ;
#12 = EDGE_LOOP ( 'NONE', ( #14, #64, #273, #222 ) ) ;
#13 = CIRCLE ( 'NONE', #134, 3.399999999999989697 ) ;
#14 = ORIENTED_EDGE ( 'NONE', *, *, #137, .F. ) ;
#15 = ADVANCED_FACE ( 'NONE', ( #135 ), #224, .T. ) ;
#16 = CARTESIAN_POINT ( 'NONE',  ( 6.891781074054827982, -6.559092531939397119, -6.422395688134606928 ) ) ;
#17 = CIRCLE ( 'NONE', #178, 30.10000000000000142 ) ;
#18 =( NAMED_UNIT ( * ) PLANE_ANGLE_UNIT ( ) SI_UNIT ( $, .RADIAN. ) );
#19 = CARTESIAN_POINT ( 'NONE',  ( 0.0000000000000000000, 0.0000000000000000000, 0.0000000000000000000 ) ) ;
#20 = FACE_OUTER_BOUND ( 'NONE', #259, .T. ) ;
#21 = MECHANICAL_DESIGN_GEOMETRIC_PRESENTATION_REPRESENTATION (  '', ( #152 ), #90 ) ;
#22 = DIRECTION ( 'NONE',  ( 0.0000000000000000000, 0.0000000000000000000, 1.000000000000000000 ) ) ;
#23 = ORIENTED_EDGE ( 'NONE', *, *, #277, .T. ) ;
#24 = ORIENTED_EDGE ( 'NONE', *, *, #115, .F. ) ;
#25 = CARTESIAN_POINT ( 'NONE',  ( 0.0000000000000000000, 0.0000000000000000000, -24.50000000000000000 ) ) ;
#26 = EDGE_CURVE ( 'NONE', #106, #55, #211, .T. ) ;
#27 = ORIENTED_EDGE ( 'NONE', *, *, #283, .T. ) ;
#28 = AXIS2_PLACEMENT_3D ( 'NONE', #186, #272, #184 ) ;
#29 = LINE ( 'NONE', #46, #10 ) ;
#30 = SURFACE_STYLE_USAGE ( .BOTH. , #265 ) ;
#31 = VECTOR ( 'NONE', #173, 1000.000000000000000 ) ;
#32 =( LENGTH_UNIT ( ) NAMED_UNIT ( * ) SI_UNIT ( .MILLI., .METRE. ) );
#33 = CARTESIAN_POINT ( 'NONE',  ( 20.00000000000000355, -1.818616867902646171E-15, 0.0000000000000000000 ) ) ;
#34 = FACE_OUTER_BOUND ( 'NONE', #54, .T. ) ;
#35 = EDGE_LOOP ( 'NONE', ( #160, #126, #85, #78 ) ) ;
#36 = ADVANCED_FACE ( 'NONE', ( #204 ), #89, .F. ) ;
#37 = ORIENTED_EDGE ( 'NONE', *, *, #43, .F. ) ;
#38 = DIRECTION ( 'NONE',  ( 0.0000000000000000000, 0.0000000000000000000, 1.000000000000000000 ) ) ;
#39 = CARTESIAN_POINT ( 'NONE',  ( -1.163414459189986471E-15, 4.750000000000000000, -10.00000000000000000 ) ) ;
#40 = DIRECTION ( 'NONE',  ( 1.224646799147353454E-16, -1.000000000000000000, 0.0000000000000000000 ) ) ;
#41 = ORIENTED_EDGE ( 'NONE', *, *, #74, .F. ) ;
#42 = ORIENTED_EDGE ( 'NONE', *, *, #84, .F. ) ;
#43 = EDGE_CURVE ( 'NONE', #55, #167, #29, .T. ) ;
#44 = APPLICATION_CONTEXT ( 'automotive_design' ) ;
#45 = CARTESIAN_POINT ( 'NONE',  ( 20.00000000000000000, 10.00000000000000000, -10.00000000000000000 ) ) ;
#46 = CARTESIAN_POINT ( 'NONE',  ( 0.0000000000000000000, -1.818616867902646171E-15, 3.399999999999993250 ) ) ;
#47 = PRODUCT_DEFINITION_SHAPE ( 'NONE', 'NONE',  #11 ) ;
#48 = STYLED_ITEM ( 'NONE', ( #206 ), #57 ) ;
#49 = CARTESIAN_POINT ( 'NONE',  ( 20.00000000000000355, -10.00000000000000000, -7.733730753654959322 ) ) ;
#50 = CARTESIAN_POINT ( 'NONE',  ( 0.0000000000000000000, 0.0000000000000000000, -30.10000000000000142 ) ) ;
#51 = VECTOR ( 'NONE', #53, 1000.000000000000000 ) ;
#52 = CYLINDRICAL_SURFACE ( 'NONE', #138, 24.50000000000000000 ) ;
#53 = DIRECTION ( 'NONE',  ( 0.0000000000000000000, 0.0000000000000000000, 1.000000000000000000 ) ) ;
#54 = EDGE_LOOP ( 'NONE', ( #144, #241, #275, #37 ) ) ;
#55 = VERTEX_POINT ( 'NONE', #227 ) ;
#56 = APPLICATION_PROTOCOL_DEFINITION ( 'draft international standard', 'automotive_design', 1998, #87 ) ;
#57 = MANIFOLD_SOLID_BREP ( 'Enlèv. mat.-Extru.1', #98 ) ;
#58 = LINE ( 'NONE', #103, #31 ) ;
#59 = PLANE ( 'NONE',  #61 ) ;
#60 = DIRECTION ( 'NONE',  ( 1.152640183373293720E-16, -1.000000000000000000, 0.0000000000000000000 ) ) ;
#61 = AXIS2_PLACEMENT_3D ( 'NONE', #81, #214, #40 ) ;
#62 = CARTESIAN_POINT ( 'NONE',  ( 5.817072295949942217E-16, -4.750000000000005329, 5.222844749451557078 ) ) ;
#63 = AXIS2_PLACEMENT_3D ( 'NONE', #50, #182, #267 ) ;
#64 = ORIENTED_EDGE ( 'NONE', *, *, #221, .F. ) ;
#65 = VERTEX_POINT ( 'NONE', #5 ) ;
#66 = EDGE_CURVE ( 'NONE', #205, #284, #108, .T. ) ;
#67 = DIRECTION ( 'NONE',  ( 1.224646799147353207E-16, -1.000000000000000000, 0.0000000000000000000 ) ) ;
#68 = PRODUCT_DEFINITION_FORMATION_WITH_SPECIFIED_SOURCE ( 'ANY', '', #73, .NOT_KNOWN. ) ;
#69 = DIRECTION ( 'NONE',  ( 0.0000000000000000000, 0.0000000000000000000, 1.000000000000000000 ) ) ;
#70 = DIRECTION ( 'NONE',  ( 1.416100796715760863E-16, -1.000000000000000000, 0.0000000000000000000 ) ) ;
#71 = SURFACE_STYLE_FILL_AREA ( #246 ) ;
#72 = PRODUCT_RELATED_PRODUCT_CATEGORY ( 'part', '', ( #73 ) ) ;
#73 = PRODUCT ( 'Cone de serrage', 'Cone de serrage', '', ( #189 ) ) ;
#74 = EDGE_CURVE ( 'NONE', #165, #205, #188, .T. ) ;
#75 = DIRECTION ( 'NONE',  ( 0.0000000000000000000, 0.0000000000000000000, 1.000000000000000000 ) ) ;
#76 = VECTOR ( 'NONE', #38, 1000.000000000000000 ) ;
#77 = FACE_OUTER_BOUND ( 'NONE', #128, .T. ) ;
#78 = ORIENTED_EDGE ( 'NONE', *, *, #176, .F. ) ;
#79 = ORIENTED_EDGE ( 'NONE', *, *, #277, .F. ) ;
#80 = CARTESIAN_POINT ( 'NONE',  ( 6.810287868248765974, 6.537700565415300424, 4.937152792396227063 ) ) ;
#81 = CARTESIAN_POINT ( 'NONE',  ( -1.925929944387235853E-31, -4.750000000000005329, -10.00000000000000000 ) ) ;
#82 = CARTESIAN_POINT ( 'NONE',  ( -5.817072295949928412E-16, 4.750000000000000000, 5.222844749451557078 ) ) ;
#83 = EDGE_LOOP ( 'NONE', ( #197, #118 ) ) ;
#84 = EDGE_CURVE ( 'NONE', #9, #284, #229, .T. ) ;
#85 = ORIENTED_EDGE ( 'NONE', *, *, #183, .F. ) ;
#86 =( BOUNDED_CURVE ( )  B_SPLINE_CURVE ( 3, ( #194, #280, #151, #239 ),
 .UNSPECIFIED., .F., .T. ) 
 B_SPLINE_CURVE_WITH_KNOTS ( ( 4, 4 ),
 ( 4.373726423389165063, 4.553919237623848204 ),
 .UNSPECIFIED. ) 
 CURVE ( )  GEOMETRIC_REPRESENTATION_ITEM ( )  RATIONAL_B_SPLINE_CURVE ( ( 1.000000000000000000, 0.9972960423012071640, 0.9972960423012071640, 1.000000000000000000 ) ) 
 REPRESENTATION_ITEM ( '' )  );
#87 = APPLICATION_CONTEXT ( 'automotive_design' ) ;
#88 = DIRECTION ( 'NONE',  ( 0.0000000000000000000, 0.0000000000000000000, 1.000000000000000000 ) ) ;
#89 = CYLINDRICAL_SURFACE ( 'NONE', #226, 3.399999999999993250 ) ;
#90 =( GEOMETRIC_REPRESENTATION_CONTEXT ( 3 ) GLOBAL_UNCERTAINTY_ASSIGNED_CONTEXT ( ( #268 ) ) GLOBAL_UNIT_ASSIGNED_CONTEXT ( ( #153, #18, #193 ) ) REPRESENTATION_CONTEXT ( 'NONE', 'WORKASPACE' ) );
#91 = CARTESIAN_POINT ( 'NONE',  ( 20.00000000000000355, -1.818616867902646171E-15, 0.0000000000000000000 ) ) ;
#92 = CARTESIAN_POINT ( 'NONE',  ( 20.00000000000000355, 10.00000000000000000, -7.733730753654955770 ) ) ;
#93 = ADVANCED_FACE ( 'NONE', ( #202, #157 ), #1, .T. ) ;
#94 = PLANE ( 'NONE',  #28 ) ;
#95 = CARTESIAN_POINT ( 'NONE',  ( -5.817072295949928412E-16, 4.750000000000000000, 5.222844749451557078 ) ) ;
#96 = DIRECTION ( 'NONE',  ( 0.0000000000000000000, 0.0000000000000000000, 1.000000000000000000 ) ) ;
#97 = ORIENTED_EDGE ( 'NONE', *, *, #176, .T. ) ;
#98 = CLOSED_SHELL ( 'NONE', ( #230, #191, #93, #169, #247, #36, #15, #234 ) ) ;
#99 = CIRCLE ( 'NONE', #274, 30.10000000000000142 ) ;
#100 = ORIENTED_EDGE ( 'NONE', *, *, #283, .F. ) ;
#101 = CARTESIAN_POINT ( 'NONE',  ( 20.00000000000000355, 10.00000000000000000, 3.890315250098932864 ) ) ;
#102 = LINE ( 'NONE', #39, #2 ) ;
#103 = CARTESIAN_POINT ( 'NONE',  ( 0.0000000000000000000, -1.402236956192547101E-15, -3.399999999999993250 ) ) ;
#104 = FILL_AREA_STYLE_COLOUR ( '', #271 ) ;
#105 = DIRECTION ( 'NONE',  ( -0.2538981284121011872, -0.9672309653794342044, 0.0000000000000000000 ) ) ;
#106 = VERTEX_POINT ( 'NONE', #243 ) ;
#107 = ORIENTED_EDGE ( 'NONE', *, *, #201, .F. ) ;
#108 =( BOUNDED_CURVE ( )  B_SPLINE_CURVE ( 3, ( #136, #181, #114, #92 ),
 .UNSPECIFIED., .F., .F. ) 
 B_SPLINE_CURVE_WITH_KNOTS ( ( 4, 4 ),
 ( 1.765909488777051672, 1.991237523624765027 ),
 .UNSPECIFIED. ) 
 CURVE ( )  GEOMETRIC_REPRESENTATION_ITEM ( )  RATIONAL_B_SPLINE_CURVE ( ( 1.000000000000000000, 0.9957734133005646804, 0.9957734133005646804, 1.000000000000000000 ) ) 
 REPRESENTATION_ITEM ( '' )  );
#109 = ORIENTED_EDGE ( 'NONE', *, *, #127, .F. ) ;
#110 = CARTESIAN_POINT ( 'NONE',  ( -1.138921523207036010E-15, -1.818616867902646171E-15, 0.0000000000000000000 ) ) ;
#111 = DIRECTION ( 'NONE',  ( -1.000000000000000000, -0.0000000000000000000, -0.0000000000000000000 ) ) ;
#112 = AXIS2_PLACEMENT_3D ( 'NONE', #45, #223, #129 ) ;
#113 = FILL_AREA_STYLE_COLOUR ( '', #174 ) ;
#114 = CARTESIAN_POINT ( 'NONE',  ( 13.58674458444775723, 8.316520453417536984, -6.981043960859791397 ) ) ;
#115 = EDGE_CURVE ( 'NONE', #65, #167, #13, .T. ) ;
#116 = CYLINDRICAL_SURFACE ( 'NONE', #162, 3.399999999999993250 ) ;
#117 = DIRECTION ( 'NONE',  ( 1.416100796715760863E-16, -1.000000000000000000, 0.0000000000000000000 ) ) ;
#118 = ORIENTED_EDGE ( 'NONE', *, *, #26, .T. ) ;
#119 = ORIENTED_EDGE ( 'NONE', *, *, #120, .F. ) ;
#120 = EDGE_CURVE ( 'NONE', #155, #236, #99, .T. ) ;
#121 = FACE_BOUND ( 'NONE', #233, .T. ) ;
#122 = CARTESIAN_POINT ( 'NONE',  ( 20.00000000000000355, 2.449293598294706907E-15, -24.50000000000000000 ) ) ;
#123 = CIRCLE ( 'NONE', #225, 3.399999999999989697 ) ;
#124 = CARTESIAN_POINT ( 'NONE',  ( 20.00000000000000355, 10.00000000000000000, 3.890315250098932864 ) ) ;
#125 = CARTESIAN_POINT ( 'NONE',  ( 5.817072295949935315E-16, -4.750000000000005329, -6.064869461556900987 ) ) ;
#126 = ORIENTED_EDGE ( 'NONE', *, *, #266, .T. ) ;
#127 = EDGE_CURVE ( 'NONE', #199, #155, #86, .T. ) ;
#128 = EDGE_LOOP ( 'NONE', ( #190, #27, #156, #158 ) ) ;
#129 = DIRECTION ( 'NONE',  ( -1.734723475976807094E-16, 1.000000000000000000, 0.0000000000000000000 ) ) ;
#130 = ORIENTED_EDGE ( 'NONE', *, *, #147, .F. ) ;
#131 = DIRECTION ( 'NONE',  ( -1.000000000000000000, -0.0000000000000000000, -0.0000000000000000000 ) ) ;
#132 =( NAMED_UNIT ( * ) PLANE_ANGLE_UNIT ( ) SI_UNIT ( $, .RADIAN. ) );
#133 = AXIS2_PLACEMENT_3D ( 'NONE', #91, #111, #69 ) ;
#134 = AXIS2_PLACEMENT_3D ( 'NONE', #110, #177, #88 ) ;
#135 = FACE_OUTER_BOUND ( 'NONE', #4, .T. ) ;
#136 = CARTESIAN_POINT ( 'NONE',  ( -5.817072295949920523E-16, 4.749999999999999112, -6.064869461556904540 ) ) ;
#137 = EDGE_CURVE ( 'NONE', #106, #65, #58, .T. ) ;
#138 = AXIS2_PLACEMENT_3D ( 'NONE', #210, #8, #117 ) ;
#139 =( GEOMETRIC_REPRESENTATION_CONTEXT ( 3 ) GLOBAL_UNCERTAINTY_ASSIGNED_CONTEXT ( ( #7 ) ) GLOBAL_UNIT_ASSIGNED_CONTEXT ( ( #192, #276, #218 ) ) REPRESENTATION_CONTEXT ( 'NONE', 'WORKASPACE' ) );
#140 = DIRECTION ( 'NONE',  ( -1.000000000000000000, -0.0000000000000000000, -0.0000000000000000000 ) ) ;
#141 = LINE ( 'NONE', #6, #51 ) ;
#142 = CARTESIAN_POINT ( 'NONE',  ( 0.0000000000000000000, -1.818616867902646171E-15, 0.0000000000000000000 ) ) ;
#143 = SHAPE_DEFINITION_REPRESENTATION ( #47, #269 ) ;
#144 = ORIENTED_EDGE ( 'NONE', *, *, #26, .F. ) ;
#145 = ORIENTED_EDGE ( 'NONE', *, *, #120, .T. ) ;
#146 = MECHANICAL_DESIGN_GEOMETRIC_PRESENTATION_REPRESENTATION (  '', ( #48 ), #240 ) ;
#147 = EDGE_CURVE ( 'NONE', #236, #242, #200, .T. ) ;
#148 = FACE_OUTER_BOUND ( 'NONE', #212, .T. ) ;
#149 = CARTESIAN_POINT ( 'NONE',  ( -1.925929944387235853E-31, -4.750000000000005329, -10.00000000000000000 ) ) ;
#150 = CARTESIAN_POINT ( 'NONE',  ( 20.00000000000000355, -10.00000000000000000, -7.733730753654959322 ) ) ;
#151 = CARTESIAN_POINT ( 'NONE',  ( 6.810287868248805943, -6.537700565415316412, 4.937152792396219070 ) ) ;
#152 = STYLED_ITEM ( 'NONE', ( #170 ), #269 ) ;
#153 =( LENGTH_UNIT ( ) NAMED_UNIT ( * ) SI_UNIT ( .MILLI., .METRE. ) );
#154 = AXIS2_PLACEMENT_3D ( 'NONE', #159, #245, #70 ) ;
#155 = VERTEX_POINT ( 'NONE', #62 ) ;
#156 = ORIENTED_EDGE ( 'NONE', *, *, #147, .T. ) ;
#157 = FACE_BOUND ( 'NONE', #83, .T. ) ;
#158 = ORIENTED_EDGE ( 'NONE', *, *, #266, .F. ) ;
#159 = CARTESIAN_POINT ( 'NONE',  ( 20.00000000000000355, 2.449293598294706907E-15, -30.10000000000000142 ) ) ;
#160 = ORIENTED_EDGE ( 'NONE', *, *, #84, .T. ) ;
#161 = PRODUCT_DEFINITION_CONTEXT ( 'detailed design', #87, 'design' ) ;
#162 = AXIS2_PLACEMENT_3D ( 'NONE', #142, #140, #163 ) ;
#163 = DIRECTION ( 'NONE',  ( 0.0000000000000000000, 0.0000000000000000000, 1.000000000000000000 ) ) ;
#164 = DIRECTION ( 'NONE',  ( -1.000000000000000000, -0.0000000000000000000, -0.0000000000000000000 ) ) ;
#165 = VERTEX_POINT ( 'NONE', #219 ) ;
#166 = DIRECTION ( 'NONE',  ( 1.000000000000000000, 0.0000000000000000000, 0.0000000000000000000 ) ) ;
#167 = VERTEX_POINT ( 'NONE', #171 ) ;
#168 = DIRECTION ( 'NONE',  ( 0.0000000000000000000, 0.0000000000000000000, 1.000000000000000000 ) ) ;
#169 = ADVANCED_FACE ( 'NONE', ( #20 ), #256, .T. ) ;
#170 = PRESENTATION_STYLE_ASSIGNMENT (( #254 ) ) ;
#171 = CARTESIAN_POINT ( 'NONE',  ( -1.138921523207036010E-15, -1.818616867902646171E-15, 3.399999999999989697 ) ) ;
#172 = CARTESIAN_POINT ( 'NONE',  ( 13.58674458444772881, -8.316520453417531655, -6.981043960859791397 ) ) ;
#173 = DIRECTION ( 'NONE',  ( -1.000000000000000000, -0.0000000000000000000, -0.0000000000000000000 ) ) ;
#174 = COLOUR_RGB ( '',0.7921568627450980005, 0.8196078431372548767, 0.9333333333333333481 ) ;
#175 = ORIENTED_EDGE ( 'NONE', *, *, #208, .T. ) ;
#176 = EDGE_CURVE ( 'NONE', #9, #199, #279, .T. ) ;
#177 = DIRECTION ( 'NONE',  ( -1.000000000000000000, -0.0000000000000000000, -0.0000000000000000000 ) ) ;
#178 = AXIS2_PLACEMENT_3D ( 'NONE', #122, #217, #60 ) ;
#179 = CARTESIAN_POINT ( 'NONE',  ( 0.0000000000000000000, -1.818616867902646171E-15, 0.0000000000000000000 ) ) ;
#180 = DIRECTION ( 'NONE',  ( 1.152640183373293720E-16, -1.000000000000000000, 0.0000000000000000000 ) ) ;
#181 = CARTESIAN_POINT ( 'NONE',  ( 6.891781074054854628, 6.559092531939398896, -6.422395688134606928 ) ) ;
#182 = DIRECTION ( 'NONE',  ( -1.000000000000000000, -1.224646799147353207E-16, 2.465190328815661892E-32 ) ) ;
#183 = EDGE_CURVE ( 'NONE', #199, #242, #17, .T. ) ;
#184 = DIRECTION ( 'NONE',  ( -0.9672309653794340933, -0.2538981284121015203, 0.0000000000000000000 ) ) ;
#185 = AXIS2_PLACEMENT_3D ( 'NONE', #33, #232, #75 ) ;
#186 = CARTESIAN_POINT ( 'NONE',  ( -1.163414459189986471E-15, 4.750000000000000000, -10.00000000000000000 ) ) ;
#187 = ORIENTED_EDGE ( 'NONE', *, *, #74, .T. ) ;
#188 = CIRCLE ( 'NONE', #63, 24.50000000000000000 ) ;
#189 = PRODUCT_CONTEXT ( 'NONE', #44, 'mechanical' ) ;
#190 = ORIENTED_EDGE ( 'NONE', *, *, #66, .F. ) ;
#191 = ADVANCED_FACE ( 'NONE', ( #77 ), #94, .T. ) ;
#192 =( LENGTH_UNIT ( ) NAMED_UNIT ( * ) SI_UNIT ( .MILLI., .METRE. ) );
#193 =( NAMED_UNIT ( * ) SI_UNIT ( $, .STERADIAN. ) SOLID_ANGLE_UNIT ( ) );
#194 = CARTESIAN_POINT ( 'NONE',  ( 20.00000000000000355, -10.00000000000000000, 3.890315250098932864 ) ) ;
#195 = FILL_AREA_STYLE ('',( #104 ) ) ;
#196 = CARTESIAN_POINT ( 'NONE',  ( 20.00000000000000355, -10.00000000000000000, -10.00000000000000000 ) ) ;
#197 = ORIENTED_EDGE ( 'NONE', *, *, #221, .T. ) ;
#198 = PRESENTATION_LAYER_ASSIGNMENT (  '', '', ( #48 ) ) ;
#199 = VERTEX_POINT ( 'NONE', #209 ) ;
#200 =( BOUNDED_CURVE ( )  B_SPLINE_CURVE ( 3, ( #82, #80, #258, #124 ),
 .UNSPECIFIED., .F., .F. ) 
 B_SPLINE_CURVE_WITH_KNOTS ( ( 4, 4 ),
 ( 1.729266069555737362, 1.909458883790421391 ),
 .UNSPECIFIED. ) 
 CURVE ( )  GEOMETRIC_REPRESENTATION_ITEM ( )  RATIONAL_B_SPLINE_CURVE ( ( 1.000000000000000000, 0.9972960423012071640, 0.9972960423012071640, 1.000000000000000000 ) ) 
 REPRESENTATION_ITEM ( '' )  );
#201 = EDGE_CURVE ( 'NONE', #167, #65, #123, .T. ) ;
#202 = FACE_OUTER_BOUND ( 'NONE', #35, .T. ) ;
#203 = AXIS2_PLACEMENT_3D ( 'NONE', #149, #105, #237 ) ;
#204 = FACE_OUTER_BOUND ( 'NONE', #12, .T. ) ;
#205 = VERTEX_POINT ( 'NONE', #270 ) ;
#206 = PRESENTATION_STYLE_ASSIGNMENT (( #30 ) ) ;
#207 = AXIS2_PLACEMENT_3D ( 'NONE', #19, #96, #166 ) ;
#208 = EDGE_CURVE ( 'NONE', #165, #155, #141, .T. ) ;
#209 = CARTESIAN_POINT ( 'NONE',  ( 20.00000000000000355, -10.00000000000000000, 3.890315250098932864 ) ) ;
#210 = CARTESIAN_POINT ( 'NONE',  ( 20.00000000000000355, 2.449293598294706907E-15, -30.10000000000000142 ) ) ;
#211 = CIRCLE ( 'NONE', #133, 3.399999999999996803 ) ;
#212 = EDGE_LOOP ( 'NONE', ( #41, #175, #145, #100 ) ) ;
#213 = ORIENTED_EDGE ( 'NONE', *, *, #127, .T. ) ;
#214 = DIRECTION ( 'NONE',  ( -1.000000000000000000, -1.224646799147353454E-16, 0.0000000000000000000 ) ) ;
#215 = CARTESIAN_POINT ( 'NONE',  ( 20.00000000000000355, 10.00000000000000000, -7.733730753654955770 ) ) ;
#216 = CIRCLE ( 'NONE', #185, 3.399999999999996803 ) ;
#217 = DIRECTION ( 'NONE',  ( -1.000000000000000000, -1.224646799147353207E-16, 2.465190328815661892E-32 ) ) ;
#218 =( NAMED_UNIT ( * ) SI_UNIT ( $, .STERADIAN. ) SOLID_ANGLE_UNIT ( ) );
#219 = CARTESIAN_POINT ( 'NONE',  ( 5.817072295949935315E-16, -4.750000000000005329, -6.064869461556900987 ) ) ;
#220 = ORIENTED_EDGE ( 'NONE', *, *, #208, .F. ) ;
#221 = EDGE_CURVE ( 'NONE', #55, #106, #216, .T. ) ;
#222 = ORIENTED_EDGE ( 'NONE', *, *, #201, .T. ) ;
#223 = DIRECTION ( 'NONE',  ( 1.000000000000000000, 1.734723475976807094E-16, -0.0000000000000000000 ) ) ;
#224 = CYLINDRICAL_SURFACE ( 'NONE', #282, 30.10000000000000142 ) ;
#225 = AXIS2_PLACEMENT_3D ( 'NONE', #231, #164, #251 ) ;
#226 = AXIS2_PLACEMENT_3D ( 'NONE', #179, #264, #263 ) ;
#227 = CARTESIAN_POINT ( 'NONE',  ( 20.00000000000000355, -1.818616867902646171E-15, 3.399999999999996803 ) ) ;
#228 =( NAMED_UNIT ( * ) SI_UNIT ( $, .STERADIAN. ) SOLID_ANGLE_UNIT ( ) );
#229 = CIRCLE ( 'NONE', #154, 24.50000000000000000 ) ;
#230 = ADVANCED_FACE ( 'NONE', ( #34 ), #116, .F. ) ;
#231 = CARTESIAN_POINT ( 'NONE',  ( -1.138921523207036010E-15, -1.818616867902646171E-15, 0.0000000000000000000 ) ) ;
#232 = DIRECTION ( 'NONE',  ( -1.000000000000000000, -0.0000000000000000000, -0.0000000000000000000 ) ) ;
#233 = EDGE_LOOP ( 'NONE', ( #107, #24 ) ) ;
#234 = ADVANCED_FACE ( 'NONE', ( #249 ), #52, .F. ) ;
#235 = APPLICATION_PROTOCOL_DEFINITION ( 'draft international standard', 'automotive_design', 1998, #44 ) ;
#236 = VERTEX_POINT ( 'NONE', #95 ) ;
#237 = DIRECTION ( 'NONE',  ( 0.9672309653794340933, -0.2538981284121011317, 0.0000000000000000000 ) ) ;
#238 = CARTESIAN_POINT ( 'NONE',  ( 20.00000000000000000, 10.00000000000000000, -10.00000000000000000 ) ) ;
#239 = CARTESIAN_POINT ( 'NONE',  ( 5.817072295949942217E-16, -4.750000000000005329, 5.222844749451557078 ) ) ;
#240 =( GEOMETRIC_REPRESENTATION_CONTEXT ( 3 ) GLOBAL_UNCERTAINTY_ASSIGNED_CONTEXT ( ( #250 ) ) GLOBAL_UNIT_ASSIGNED_CONTEXT ( ( #32, #132, #228 ) ) REPRESENTATION_CONTEXT ( 'NONE', 'WORKASPACE' ) );
#241 = ORIENTED_EDGE ( 'NONE', *, *, #137, .T. ) ;
#242 = VERTEX_POINT ( 'NONE', #101 ) ;
#243 = CARTESIAN_POINT ( 'NONE',  ( 20.00000000000000355, -1.402236956192546510E-15, -3.399999999999997247 ) ) ;
#244 = DIRECTION ( 'NONE',  ( -1.000000000000000000, -1.224646799147353207E-16, -0.0000000000000000000 ) ) ;
#245 = DIRECTION ( 'NONE',  ( -1.000000000000000000, -1.224646799147353207E-16, 2.465190328815661892E-32 ) ) ;
#246 = FILL_AREA_STYLE ('',( #113 ) ) ;
#247 = ADVANCED_FACE ( 'NONE', ( #148, #121 ), #59, .T. ) ;
#248 = VECTOR ( 'NONE', #22, 1000.000000000000000 ) ;
#249 = FACE_OUTER_BOUND ( 'NONE', #281, .T. ) ;
#250 = UNCERTAINTY_MEASURE_WITH_UNIT (LENGTH_MEASURE( 1.000000000000000082E-05 ), #32, 'distance_accuracy_value', 'NONE');
#251 = DIRECTION ( 'NONE',  ( 0.0000000000000000000, 0.0000000000000000000, 1.000000000000000000 ) ) ;
#252 = ORIENTED_EDGE ( 'NONE', *, *, #183, .T. ) ;
#253 = ORIENTED_EDGE ( 'NONE', *, *, #66, .T. ) ;
#254 = SURFACE_STYLE_USAGE ( .BOTH. , #255 ) ;
#255 = SURFACE_SIDE_STYLE ('',( #278 ) ) ;
#256 = PLANE ( 'NONE',  #203 ) ;
#257 = LINE ( 'NONE', #238, #248 ) ;
#258 = CARTESIAN_POINT ( 'NONE',  ( 13.49502979431085592, 8.292445321006598036, 4.491772001794372748 ) ) ;
#259 = EDGE_LOOP ( 'NONE', ( #79, #97, #213, #220 ) ) ;
#260 = DIRECTION ( 'NONE',  ( -1.000000000000000000, -1.224646799147353207E-16, 2.465190328815661892E-32 ) ) ;
#261 = PRESENTATION_LAYER_ASSIGNMENT (  '', '', ( #152 ) ) ;
#262 =( BOUNDED_CURVE ( )  B_SPLINE_CURVE ( 3, ( #150, #172, #16, #125 ),
 .UNSPECIFIED., .F., .F. ) 
 B_SPLINE_CURVE_WITH_KNOTS ( ( 4, 4 ),
 ( 4.291947783554821427, 4.517275818402534782 ),
 .UNSPECIFIED. ) 
 CURVE ( )  GEOMETRIC_REPRESENTATION_ITEM ( )  RATIONAL_B_SPLINE_CURVE ( ( 1.000000000000000000, 0.9957734133005646804, 0.9957734133005646804, 1.000000000000000000 ) ) 
 REPRESENTATION_ITEM ( '' )  );
#263 = DIRECTION ( 'NONE',  ( 0.0000000000000000000, 0.0000000000000000000, 1.000000000000000000 ) ) ;
#264 = DIRECTION ( 'NONE',  ( -1.000000000000000000, -0.0000000000000000000, -0.0000000000000000000 ) ) ;
#265 = SURFACE_SIDE_STYLE ('',( #71 ) ) ;
#266 = EDGE_CURVE ( 'NONE', #284, #242, #257, .T. ) ;
#267 = DIRECTION ( 'NONE',  ( 1.224646799147353207E-16, -1.000000000000000000, 0.0000000000000000000 ) ) ;
#268 = UNCERTAINTY_MEASURE_WITH_UNIT (LENGTH_MEASURE( 1.000000000000000082E-05 ), #153, 'distance_accuracy_value', 'NONE');
#269 = ADVANCED_BREP_SHAPE_REPRESENTATION ( 'Cone de serrage', ( #57, #207 ), #139 ) ;
#270 = CARTESIAN_POINT ( 'NONE',  ( -5.817072295949920523E-16, 4.749999999999999112, -6.064869461556904540 ) ) ;
#271 = COLOUR_RGB ( '',0.7921568627450980005, 0.8196078431372548767, 0.9333333333333333481 ) ;
#272 = DIRECTION ( 'NONE',  ( -0.2538981284121015203, 0.9672309653794340933, 0.0000000000000000000 ) ) ;
#273 = ORIENTED_EDGE ( 'NONE', *, *, #43, .T. ) ;
#274 = AXIS2_PLACEMENT_3D ( 'NONE', #25, #260, #67 ) ;
#275 = ORIENTED_EDGE ( 'NONE', *, *, #115, .T. ) ;
#276 =( NAMED_UNIT ( * ) PLANE_ANGLE_UNIT ( ) SI_UNIT ( $, .RADIAN. ) );
#277 = EDGE_CURVE ( 'NONE', #9, #165, #262, .T. ) ;
#278 = SURFACE_STYLE_FILL_AREA ( #195 ) ;
#279 = LINE ( 'NONE', #196, #76 ) ;
#280 = CARTESIAN_POINT ( 'NONE',  ( 13.49502979431086658, -8.292445321006603365, 4.491772001794370084 ) ) ;
#281 = EDGE_LOOP ( 'NONE', ( #253, #42, #23, #187 ) ) ;
#282 = AXIS2_PLACEMENT_3D ( 'NONE', #3, #244, #180 ) ;
#283 = EDGE_CURVE ( 'NONE', #205, #236, #102, .T. ) ;
#284 = VERTEX_POINT ( 'NONE', #215 ) ;
ENDSEC;
END-ISO-10303-21;
