ISO-10303-21;
HEADER;
/* Generated by software containing ST-Developer
 * from STEP Tools, Inc. (www.steptools.com) 
 */

FILE_DESCRIPTION(
/* description */ (''),
/* implementation_level */ '2;1');

FILE_NAME(
/* name */ '/Users/benj/Desktop/ManchonClavette-6.3 v3.step',
/* time_stamp */ '2020-07-16T11:57:41+02:00',
/* author */ (''),
/* organization */ (''),
/* preprocessor_version */ 'ST-DEVELOPER v18.1',
/* originating_system */ 'Autodesk Translation Framework v9.3.0.1241',
/* authorisation */ '');

FILE_SCHEMA (('AUTOMOTIVE_DESIGN { 1 0 10303 214 3 1 1 }'));
ENDSEC;

DATA;
#10=MECHANICAL_DESIGN_GEOMETRIC_PRESENTATION_REPRESENTATION('',(#13),#257);
#11=SHAPE_REPRESENTATION_RELATIONSHIP('SRR','None',#264,#12);
#12=ADVANCED_BREP_SHAPE_REPRESENTATION('',(#14),#256);
#13=STYLED_ITEM('',(#273),#14);
#14=MANIFOLD_SOLID_BREP('Body1',#149);
#15=FACE_BOUND('',#38,.T.);
#16=FACE_BOUND('',#40,.T.);
#17=CIRCLE('',#165,3.225);
#18=CIRCLE('',#166,3.225);
#19=CIRCLE('',#171,5.5);
#20=CIRCLE('',#172,5.5);
#21=CYLINDRICAL_SURFACE('',#164,3.225);
#22=CYLINDRICAL_SURFACE('',#170,5.5);
#23=FACE_OUTER_BOUND('',#31,.T.);
#24=FACE_OUTER_BOUND('',#32,.T.);
#25=FACE_OUTER_BOUND('',#33,.T.);
#26=FACE_OUTER_BOUND('',#34,.T.);
#27=FACE_OUTER_BOUND('',#35,.T.);
#28=FACE_OUTER_BOUND('',#36,.T.);
#29=FACE_OUTER_BOUND('',#37,.T.);
#30=FACE_OUTER_BOUND('',#39,.T.);
#31=EDGE_LOOP('',(#99,#100,#101,#102));
#32=EDGE_LOOP('',(#103,#104,#105,#106));
#33=EDGE_LOOP('',(#107,#108,#109,#110));
#34=EDGE_LOOP('',(#111,#112,#113,#114));
#35=EDGE_LOOP('',(#115,#116,#117,#118));
#36=EDGE_LOOP('',(#119,#120,#121,#122));
#37=EDGE_LOOP('',(#123,#124,#125,#126));
#38=EDGE_LOOP('',(#127,#128));
#39=EDGE_LOOP('',(#129,#130,#131,#132));
#40=EDGE_LOOP('',(#133,#134));
#41=LINE('',#219,#55);
#42=LINE('',#221,#56);
#43=LINE('',#223,#57);
#44=LINE('',#224,#58);
#45=LINE('',#231,#59);
#46=LINE('',#233,#60);
#47=LINE('',#235,#61);
#48=LINE('',#236,#62);
#49=LINE('',#239,#63);
#50=LINE('',#241,#64);
#51=LINE('',#242,#65);
#52=LINE('',#245,#66);
#53=LINE('',#247,#67);
#54=LINE('',#248,#68);
#55=VECTOR('',#179,10.);
#56=VECTOR('',#180,10.);
#57=VECTOR('',#181,10.);
#58=VECTOR('',#182,10.);
#59=VECTOR('',#191,10.);
#60=VECTOR('',#192,10.);
#61=VECTOR('',#193,10.);
#62=VECTOR('',#194,10.);
#63=VECTOR('',#197,10.);
#64=VECTOR('',#198,10.);
#65=VECTOR('',#199,10.);
#66=VECTOR('',#202,10.);
#67=VECTOR('',#203,10.);
#68=VECTOR('',#204,10.);
#69=VERTEX_POINT('',#217);
#70=VERTEX_POINT('',#218);
#71=VERTEX_POINT('',#220);
#72=VERTEX_POINT('',#222);
#73=VERTEX_POINT('',#229);
#74=VERTEX_POINT('',#230);
#75=VERTEX_POINT('',#232);
#76=VERTEX_POINT('',#234);
#77=VERTEX_POINT('',#238);
#78=VERTEX_POINT('',#240);
#79=VERTEX_POINT('',#244);
#80=VERTEX_POINT('',#246);
#81=EDGE_CURVE('',#69,#70,#41,.T.);
#82=EDGE_CURVE('',#70,#71,#42,.T.);
#83=EDGE_CURVE('',#72,#71,#43,.T.);
#84=EDGE_CURVE('',#69,#72,#44,.T.);
#85=EDGE_CURVE('',#70,#69,#17,.T.);
#86=EDGE_CURVE('',#71,#72,#18,.T.);
#87=EDGE_CURVE('',#73,#74,#45,.T.);
#88=EDGE_CURVE('',#73,#75,#46,.T.);
#89=EDGE_CURVE('',#76,#75,#47,.T.);
#90=EDGE_CURVE('',#74,#76,#48,.T.);
#91=EDGE_CURVE('',#74,#77,#49,.T.);
#92=EDGE_CURVE('',#78,#76,#50,.T.);
#93=EDGE_CURVE('',#77,#78,#51,.T.);
#94=EDGE_CURVE('',#77,#79,#52,.T.);
#95=EDGE_CURVE('',#80,#78,#53,.T.);
#96=EDGE_CURVE('',#79,#80,#54,.T.);
#97=EDGE_CURVE('',#73,#79,#19,.T.);
#98=EDGE_CURVE('',#75,#80,#20,.T.);
#99=ORIENTED_EDGE('',*,*,#81,.T.);
#100=ORIENTED_EDGE('',*,*,#82,.T.);
#101=ORIENTED_EDGE('',*,*,#83,.F.);
#102=ORIENTED_EDGE('',*,*,#84,.F.);
#103=ORIENTED_EDGE('',*,*,#85,.T.);
#104=ORIENTED_EDGE('',*,*,#84,.T.);
#105=ORIENTED_EDGE('',*,*,#86,.F.);
#106=ORIENTED_EDGE('',*,*,#82,.F.);
#107=ORIENTED_EDGE('',*,*,#87,.F.);
#108=ORIENTED_EDGE('',*,*,#88,.T.);
#109=ORIENTED_EDGE('',*,*,#89,.F.);
#110=ORIENTED_EDGE('',*,*,#90,.F.);
#111=ORIENTED_EDGE('',*,*,#91,.F.);
#112=ORIENTED_EDGE('',*,*,#90,.T.);
#113=ORIENTED_EDGE('',*,*,#92,.F.);
#114=ORIENTED_EDGE('',*,*,#93,.F.);
#115=ORIENTED_EDGE('',*,*,#94,.F.);
#116=ORIENTED_EDGE('',*,*,#93,.T.);
#117=ORIENTED_EDGE('',*,*,#95,.F.);
#118=ORIENTED_EDGE('',*,*,#96,.F.);
#119=ORIENTED_EDGE('',*,*,#97,.T.);
#120=ORIENTED_EDGE('',*,*,#96,.T.);
#121=ORIENTED_EDGE('',*,*,#98,.F.);
#122=ORIENTED_EDGE('',*,*,#88,.F.);
#123=ORIENTED_EDGE('',*,*,#98,.T.);
#124=ORIENTED_EDGE('',*,*,#95,.T.);
#125=ORIENTED_EDGE('',*,*,#92,.T.);
#126=ORIENTED_EDGE('',*,*,#89,.T.);
#127=ORIENTED_EDGE('',*,*,#86,.T.);
#128=ORIENTED_EDGE('',*,*,#83,.T.);
#129=ORIENTED_EDGE('',*,*,#97,.F.);
#130=ORIENTED_EDGE('',*,*,#87,.T.);
#131=ORIENTED_EDGE('',*,*,#91,.T.);
#132=ORIENTED_EDGE('',*,*,#94,.T.);
#133=ORIENTED_EDGE('',*,*,#85,.F.);
#134=ORIENTED_EDGE('',*,*,#81,.F.);
#135=PLANE('',#163);
#136=PLANE('',#167);
#137=PLANE('',#168);
#138=PLANE('',#169);
#139=PLANE('',#173);
#140=PLANE('',#174);
#141=ADVANCED_FACE('',(#23),#135,.T.);
#142=ADVANCED_FACE('',(#24),#21,.F.);
#143=ADVANCED_FACE('',(#25),#136,.T.);
#144=ADVANCED_FACE('',(#26),#137,.T.);
#145=ADVANCED_FACE('',(#27),#138,.T.);
#146=ADVANCED_FACE('',(#28),#22,.T.);
#147=ADVANCED_FACE('',(#29,#15),#139,.T.);
#148=ADVANCED_FACE('',(#30,#16),#140,.F.);
#149=CLOSED_SHELL('',(#141,#142,#143,#144,#145,#146,#147,#148));
#150=DERIVED_UNIT_ELEMENT(#152,1.);
#151=DERIVED_UNIT_ELEMENT(#259,3.);
#152=(
MASS_UNIT()
NAMED_UNIT(*)
SI_UNIT(.KILO.,.GRAM.)
);
#153=DERIVED_UNIT((#150,#151));
#154=MEASURE_REPRESENTATION_ITEM('density measure',
POSITIVE_RATIO_MEASURE(7850.),#153);
#155=PROPERTY_DEFINITION_REPRESENTATION(#160,#157);
#156=PROPERTY_DEFINITION_REPRESENTATION(#161,#158);
#157=REPRESENTATION('material name',(#159),#256);
#158=REPRESENTATION('density',(#154),#256);
#159=DESCRIPTIVE_REPRESENTATION_ITEM('Steel','Steel');
#160=PROPERTY_DEFINITION('material property','material name',#266);
#161=PROPERTY_DEFINITION('material property','density of part',#266);
#162=AXIS2_PLACEMENT_3D('placement',#215,#175,#176);
#163=AXIS2_PLACEMENT_3D('',#216,#177,#178);
#164=AXIS2_PLACEMENT_3D('',#225,#183,#184);
#165=AXIS2_PLACEMENT_3D('',#226,#185,#186);
#166=AXIS2_PLACEMENT_3D('',#227,#187,#188);
#167=AXIS2_PLACEMENT_3D('',#228,#189,#190);
#168=AXIS2_PLACEMENT_3D('',#237,#195,#196);
#169=AXIS2_PLACEMENT_3D('',#243,#200,#201);
#170=AXIS2_PLACEMENT_3D('',#249,#205,#206);
#171=AXIS2_PLACEMENT_3D('',#250,#207,#208);
#172=AXIS2_PLACEMENT_3D('',#251,#209,#210);
#173=AXIS2_PLACEMENT_3D('',#252,#211,#212);
#174=AXIS2_PLACEMENT_3D('',#253,#213,#214);
#175=DIRECTION('axis',(0.,0.,1.));
#176=DIRECTION('refdir',(1.,0.,0.));
#177=DIRECTION('center_axis',(0.,1.,0.));
#178=DIRECTION('ref_axis',(-1.,0.,0.));
#179=DIRECTION('',(-1.,0.,0.));
#180=DIRECTION('',(0.,0.,1.));
#181=DIRECTION('',(-1.,0.,0.));
#182=DIRECTION('',(0.,0.,1.));
#183=DIRECTION('center_axis',(0.,0.,1.));
#184=DIRECTION('ref_axis',(6.12323399573677E-17,1.,0.));
#185=DIRECTION('center_axis',(0.,0.,-1.));
#186=DIRECTION('ref_axis',(1.,0.,0.));
#187=DIRECTION('center_axis',(0.,0.,-1.));
#188=DIRECTION('ref_axis',(1.,0.,0.));
#189=DIRECTION('center_axis',(-1.,0.,0.));
#190=DIRECTION('ref_axis',(0.,-1.,0.));
#191=DIRECTION('',(0.,1.,0.));
#192=DIRECTION('',(0.,0.,1.));
#193=DIRECTION('',(0.,-1.,0.));
#194=DIRECTION('',(0.,0.,1.));
#195=DIRECTION('center_axis',(0.,1.,0.));
#196=DIRECTION('ref_axis',(-1.,0.,0.));
#197=DIRECTION('',(1.,0.,0.));
#198=DIRECTION('',(-1.,0.,0.));
#199=DIRECTION('',(0.,0.,1.));
#200=DIRECTION('center_axis',(1.,0.,0.));
#201=DIRECTION('ref_axis',(0.,1.,0.));
#202=DIRECTION('',(0.,-1.,0.));
#203=DIRECTION('',(0.,1.,0.));
#204=DIRECTION('',(0.,0.,1.));
#205=DIRECTION('center_axis',(0.,0.,1.));
#206=DIRECTION('ref_axis',(-1.83697019872103E-16,-1.,0.));
#207=DIRECTION('center_axis',(0.,0.,1.));
#208=DIRECTION('ref_axis',(1.,0.,0.));
#209=DIRECTION('center_axis',(0.,0.,1.));
#210=DIRECTION('ref_axis',(1.,0.,0.));
#211=DIRECTION('center_axis',(0.,0.,1.));
#212=DIRECTION('ref_axis',(1.,0.,0.));
#213=DIRECTION('center_axis',(0.,0.,1.));
#214=DIRECTION('ref_axis',(1.,0.,0.));
#215=CARTESIAN_POINT('',(0.,0.,0.));
#216=CARTESIAN_POINT('Origin',(1.6431676725155,-2.775,0.));
#217=CARTESIAN_POINT('',(1.6431676725155,-2.775,0.));
#218=CARTESIAN_POINT('',(-1.6431676725155,-2.775,0.));
#219=CARTESIAN_POINT('',(1.6431676725155,-2.775,0.));
#220=CARTESIAN_POINT('',(-1.6431676725155,-2.775,20.5));
#221=CARTESIAN_POINT('',(-1.6431676725155,-2.775,0.));
#222=CARTESIAN_POINT('',(1.6431676725155,-2.775,20.5));
#223=CARTESIAN_POINT('',(1.6431676725155,-2.775,20.5));
#224=CARTESIAN_POINT('',(1.6431676725155,-2.775,0.));
#225=CARTESIAN_POINT('Origin',(0.,0.,0.));
#226=CARTESIAN_POINT('Origin',(0.,0.,0.));
#227=CARTESIAN_POINT('Origin',(0.,0.,20.5));
#228=CARTESIAN_POINT('Origin',(-1.8,7.1,0.));
#229=CARTESIAN_POINT('',(-1.8,5.19711458407452,0.));
#230=CARTESIAN_POINT('',(-1.8,7.1,0.));
#231=CARTESIAN_POINT('',(-1.8,5.19711458407452,0.));
#232=CARTESIAN_POINT('',(-1.8,5.19711458407452,20.5));
#233=CARTESIAN_POINT('',(-1.8,5.19711458407452,0.));
#234=CARTESIAN_POINT('',(-1.8,7.1,20.5));
#235=CARTESIAN_POINT('',(-1.8,5.19711458407452,20.5));
#236=CARTESIAN_POINT('',(-1.8,7.1,0.));
#237=CARTESIAN_POINT('Origin',(1.8,7.1,0.));
#238=CARTESIAN_POINT('',(1.8,7.1,0.));
#239=CARTESIAN_POINT('',(-1.8,7.1,0.));
#240=CARTESIAN_POINT('',(1.8,7.1,20.5));
#241=CARTESIAN_POINT('',(-1.8,7.1,20.5));
#242=CARTESIAN_POINT('',(1.8,7.1,0.));
#243=CARTESIAN_POINT('Origin',(1.8,5.19711458407452,0.));
#244=CARTESIAN_POINT('',(1.8,5.19711458407452,0.));
#245=CARTESIAN_POINT('',(1.8,7.1,0.));
#246=CARTESIAN_POINT('',(1.8,5.19711458407452,20.5));
#247=CARTESIAN_POINT('',(1.8,7.1,20.5));
#248=CARTESIAN_POINT('',(1.8,5.19711458407452,0.));
#249=CARTESIAN_POINT('Origin',(0.,0.,0.));
#250=CARTESIAN_POINT('Origin',(0.,0.,0.));
#251=CARTESIAN_POINT('Origin',(0.,0.,20.5));
#252=CARTESIAN_POINT('Origin',(0.,0.8,20.5));
#253=CARTESIAN_POINT('Origin',(0.,0.8,0.));
#254=UNCERTAINTY_MEASURE_WITH_UNIT(LENGTH_MEASURE(0.01),#258,
'DISTANCE_ACCURACY_VALUE',
'Maximum model space distance between geometric entities at asserted c
onnectivities');
#255=UNCERTAINTY_MEASURE_WITH_UNIT(LENGTH_MEASURE(0.01),#258,
'DISTANCE_ACCURACY_VALUE',
'Maximum model space distance between geometric entities at asserted c
onnectivities');
#256=(
GEOMETRIC_REPRESENTATION_CONTEXT(3)
GLOBAL_UNCERTAINTY_ASSIGNED_CONTEXT((#254))
GLOBAL_UNIT_ASSIGNED_CONTEXT((#258,#260,#261))
REPRESENTATION_CONTEXT('','3D')
);
#257=(
GEOMETRIC_REPRESENTATION_CONTEXT(3)
GLOBAL_UNCERTAINTY_ASSIGNED_CONTEXT((#255))
GLOBAL_UNIT_ASSIGNED_CONTEXT((#258,#260,#261))
REPRESENTATION_CONTEXT('','3D')
);
#258=(
LENGTH_UNIT()
NAMED_UNIT(*)
SI_UNIT(.MILLI.,.METRE.)
);
#259=(
LENGTH_UNIT()
NAMED_UNIT(*)
SI_UNIT($,.METRE.)
);
#260=(
NAMED_UNIT(*)
PLANE_ANGLE_UNIT()
SI_UNIT($,.RADIAN.)
);
#261=(
NAMED_UNIT(*)
SI_UNIT($,.STERADIAN.)
SOLID_ANGLE_UNIT()
);
#262=SHAPE_DEFINITION_REPRESENTATION(#263,#264);
#263=PRODUCT_DEFINITION_SHAPE('',$,#266);
#264=SHAPE_REPRESENTATION('',(#162),#256);
#265=PRODUCT_DEFINITION_CONTEXT('part definition',#270,'design');
#266=PRODUCT_DEFINITION('ManchonClavette-6.3','ManchonClavette-6.3 v3',
#267,#265);
#267=PRODUCT_DEFINITION_FORMATION('',$,#272);
#268=PRODUCT_RELATED_PRODUCT_CATEGORY('ManchonClavette-6.3 v3',
'ManchonClavette-6.3 v3',(#272));
#269=APPLICATION_PROTOCOL_DEFINITION('international standard',
'automotive_design',2009,#270);
#270=APPLICATION_CONTEXT(
'Core Data for Automotive Mechanical Design Process');
#271=PRODUCT_CONTEXT('part definition',#270,'mechanical');
#272=PRODUCT('ManchonClavette-6.3','ManchonClavette-6.3 v3',$,(#271));
#273=PRESENTATION_STYLE_ASSIGNMENT((#274));
#274=SURFACE_STYLE_USAGE(.BOTH.,#275);
#275=SURFACE_SIDE_STYLE('',(#276));
#276=SURFACE_STYLE_FILL_AREA(#277);
#277=FILL_AREA_STYLE('Steel - Satin',(#278));
#278=FILL_AREA_STYLE_COLOUR('Steel - Satin',#279);
#279=COLOUR_RGB('Steel - Satin',0.627450980392157,0.627450980392157,0.627450980392157);
ENDSEC;
END-ISO-10303-21;
