ISO-10303-21;
HEADER;
FILE_DESCRIPTION (( 'STEP AP214' ),
    '1' );
FILE_NAME ('Plaque fer doux.STEP',
    '2020-07-31T14:16:27',
    ( '' ),
    ( '' ),
    'SwSTEP 2.0',
    'SolidWorks 2016',
    '' );
FILE_SCHEMA (( 'AUTOMOTIVE_DESIGN' ));
ENDSEC;

DATA;
#1 = AXIS2_PLACEMENT_3D ( 'NONE', #292, #109, #191 ) ;
#2 = EDGE_CURVE ( 'NONE', #188, #196, #275, .T. ) ;
#3 = AXIS2_PLACEMENT_3D ( 'NONE', #217, #227, #87 ) ;
#4 = CYLINDRICAL_SURFACE ( 'NONE', #108, 8.800000000000000700 ) ;
#5 = DIRECTION ( 'NONE',  ( -0.0000000000000000000, -0.0000000000000000000, -1.000000000000000000 ) ) ;
#6 = AXIS2_PLACEMENT_3D ( 'NONE', #221, #86, #110 ) ;
#7 = CARTESIAN_POINT ( 'NONE',  ( -8.800000000000000700, 1.077689183249670800E-015, -2.999999999999990700 ) ) ;
#8 = ORIENTED_EDGE ( 'NONE', *, *, #31, .F. ) ;
#9 = FACE_OUTER_BOUND ( 'NONE', #189, .T. ) ;
#10 = DIRECTION ( 'NONE',  ( -0.0000000000000000000, -0.0000000000000000000, 1.000000000000000000 ) ) ;
#11 = CARTESIAN_POINT ( 'NONE',  ( 0.0000000000000000000, 0.0000000000000000000, -4.000000000000000000 ) ) ;
#12 = FACE_OUTER_BOUND ( 'NONE', #207, .T. ) ;
#13 = DIRECTION ( 'NONE',  ( 0.0000000000000000000, 0.0000000000000000000, 1.000000000000000000 ) ) ;
#14 = EDGE_CURVE ( 'NONE', #220, #307, #106, .T. ) ;
#15 = ADVANCED_BREP_SHAPE_REPRESENTATION ( 'Plaque fer doux', ( #317, #3 ), #310 ) ;
#16 = ORIENTED_EDGE ( 'NONE', *, *, #186, .T. ) ;
#17 = LINE ( 'NONE', #215, #45 ) ;
#18 = ORIENTED_EDGE ( 'NONE', *, *, #247, .F. ) ;
#19 = DIRECTION ( 'NONE',  ( -1.000000000000000000, 0.0000000000000000000, 0.0000000000000000000 ) ) ;
#20 = ADVANCED_FACE ( 'NONE', ( #67 ), #305, .T. ) ;
#21 = DIRECTION ( 'NONE',  ( -0.0000000000000000000, -0.0000000000000000000, -1.000000000000000000 ) ) ;
#22 = EDGE_LOOP ( 'NONE', ( #259, #123 ) ) ;
#23 = CYLINDRICAL_SURFACE ( 'NONE', #91, 25.00000000000000000 ) ;
#24 = VERTEX_POINT ( 'NONE', #303 ) ;
#25 = CARTESIAN_POINT ( 'NONE',  ( 0.0000000000000000000, 0.0000000000000000000, 3.000000000000000000 ) ) ;
#26 = VERTEX_POINT ( 'NONE', #136 ) ;
#27 = DIRECTION ( 'NONE',  ( 1.000000000000000000, 0.0000000000000000000, 0.0000000000000000000 ) ) ;
#28 = DIRECTION ( 'NONE',  ( 0.0000000000000000000, 0.0000000000000000000, 1.000000000000000000 ) ) ;
#29 =( LENGTH_UNIT ( ) NAMED_UNIT ( * ) SI_UNIT ( .MILLI., .METRE. ) );
#30 = DIRECTION ( 'NONE',  ( 1.000000000000000000, 0.0000000000000000000, 0.0000000000000000000 ) ) ;
#31 = EDGE_CURVE ( 'NONE', #77, #79, #288, .T. ) ;
#32 = FILL_AREA_STYLE_COLOUR ( '', #65 ) ;
#33 = DIRECTION ( 'NONE',  ( 1.000000000000000000, 0.0000000000000000000, 0.0000000000000000000 ) ) ;
#34 = ORIENTED_EDGE ( 'NONE', *, *, #291, .T. ) ;
#35 = CARTESIAN_POINT ( 'NONE',  ( 0.0000000000000000000, 0.0000000000000000000, 3.000000000000000000 ) ) ;
#36 = ORIENTED_EDGE ( 'NONE', *, *, #306, .T. ) ;
#37 = PRESENTATION_LAYER_ASSIGNMENT (  '', '', ( #40 ) ) ;
#38 = ORIENTED_EDGE ( 'NONE', *, *, #306, .F. ) ;
#39 = DIRECTION ( 'NONE',  ( -1.000000000000000000, 0.0000000000000000000, 0.0000000000000000000 ) ) ;
#40 = STYLED_ITEM ( 'NONE', ( #174 ), #317 ) ;
#41 = AXIS2_PLACEMENT_3D ( 'NONE', #254, #279, #230 ) ;
#42 = CYLINDRICAL_SURFACE ( 'NONE', #219, 5.000000000000000000 ) ;
#43 = UNCERTAINTY_MEASURE_WITH_UNIT (LENGTH_MEASURE( 1.000000000000000100E-005 ), #324, 'distance_accuracy_value', 'NONE');
#44 = ADVANCED_FACE ( 'NONE', ( #124, #208 ), #297, .T. ) ;
#45 = VECTOR ( 'NONE', #101, 1000.000000000000000 ) ;
#46 = ADVANCED_FACE ( 'NONE', ( #9, #314 ), #59, .F. ) ;
#47 = EDGE_LOOP ( 'NONE', ( #38, #121 ) ) ;
#48 = CARTESIAN_POINT ( 'NONE',  ( 25.00000000000000000, 3.061616997868383000E-015, 3.000000000000000000 ) ) ;
#49 = CARTESIAN_POINT ( 'NONE',  ( 5.000000000000000000, 6.123233995736766300E-016, -4.000000000000000000 ) ) ;
#50 = LINE ( 'NONE', #185, #78 ) ;
#51 = AXIS2_PLACEMENT_3D ( 'NONE', #268, #164, #27 ) ;
#52 = CARTESIAN_POINT ( 'NONE',  ( 0.0000000000000000000, 0.0000000000000000000, 3.000000000000000000 ) ) ;
#53 = ORIENTED_EDGE ( 'NONE', *, *, #2, .T. ) ;
#54 = ORIENTED_EDGE ( 'NONE', *, *, #298, .T. ) ;
#55 = EDGE_LOOP ( 'NONE', ( #315, #200, #8, #333 ) ) ;
#56 = EDGE_CURVE ( 'NONE', #241, #160, #265, .T. ) ;
#57 = DIRECTION ( 'NONE',  ( -0.0000000000000000000, -0.0000000000000000000, -1.000000000000000000 ) ) ;
#58 = DIRECTION ( 'NONE',  ( -1.000000000000000000, 0.0000000000000000000, 0.0000000000000000000 ) ) ;
#59 = PLANE ( 'NONE',  #338 ) ;
#60 = UNCERTAINTY_MEASURE_WITH_UNIT (LENGTH_MEASURE( 1.000000000000000100E-005 ), #85, 'distance_accuracy_value', 'NONE');
#61 = DIRECTION ( 'NONE',  ( 1.000000000000000000, 0.0000000000000000000, 0.0000000000000000000 ) ) ;
#62 = AXIS2_PLACEMENT_3D ( 'NONE', #224, #111, #272 ) ;
#63 = APPLICATION_PROTOCOL_DEFINITION ( 'draft international standard', 'automotive_design', 1998, #137 ) ;
#64 = PRODUCT_DEFINITION_CONTEXT ( 'detailed design', #137, 'design' ) ;
#65 = COLOUR_RGB ( '',0.2000000000000000100, 0.2000000000000000100, 0.2000000000000000100 ) ;
#66 = DIRECTION ( 'NONE',  ( 0.0000000000000000000, 0.0000000000000000000, 1.000000000000000000 ) ) ;
#67 = FACE_OUTER_BOUND ( 'NONE', #142, .T. ) ;
#68 = CARTESIAN_POINT ( 'NONE',  ( 0.0000000000000000000, 0.0000000000000000000, -4.000000000000000000 ) ) ;
#69 = COLOUR_RGB ( '',0.2000000000000000100, 0.2000000000000000100, 0.2000000000000000100 ) ;
#70 = EDGE_LOOP ( 'NONE', ( #340, #167 ) ) ;
#71 = VECTOR ( 'NONE', #327, 1000.000000000000000 ) ;
#72 = PRODUCT ( 'Plaque fer doux', 'Plaque fer doux', '', ( #299 ) ) ;
#73 = VECTOR ( 'NONE', #57, 1000.000000000000000 ) ;
#74 = VERTEX_POINT ( 'NONE', #165 ) ;
#75 = FACE_OUTER_BOUND ( 'NONE', #133, .T. ) ;
#76 = AXIS2_PLACEMENT_3D ( 'NONE', #88, #10, #335 ) ;
#77 = VERTEX_POINT ( 'NONE', #274 ) ;
#78 = VECTOR ( 'NONE', #319, 1000.000000000000000 ) ;
#79 = VERTEX_POINT ( 'NONE', #7 ) ;
#80 = DIRECTION ( 'NONE',  ( 1.000000000000000000, 0.0000000000000000000, 0.0000000000000000000 ) ) ;
#81 =( NAMED_UNIT ( * ) PLANE_ANGLE_UNIT ( ) SI_UNIT ( $, .RADIAN. ) );
#82 = CIRCLE ( 'NONE', #128, 5.000000000000000000 ) ;
#83 = FACE_OUTER_BOUND ( 'NONE', #22, .T. ) ;
#84 = CARTESIAN_POINT ( 'NONE',  ( 0.0000000000000000000, 0.0000000000000000000, -4.000000000000000000 ) ) ;
#85 =( LENGTH_UNIT ( ) NAMED_UNIT ( * ) SI_UNIT ( .MILLI., .METRE. ) );
#86 = DIRECTION ( 'NONE',  ( 0.0000000000000000000, 0.0000000000000000000, 1.000000000000000000 ) ) ;
#87 = DIRECTION ( 'NONE',  ( 1.000000000000000000, 0.0000000000000000000, 0.0000000000000000000 ) ) ;
#88 = CARTESIAN_POINT ( 'NONE',  ( 0.0000000000000000000, 0.0000000000000000000, -4.000000000000000000 ) ) ;
#89 = DIRECTION ( 'NONE',  ( 1.000000000000000000, 0.0000000000000000000, 0.0000000000000000000 ) ) ;
#90 = CIRCLE ( 'NONE', #112, 25.00000000000000000 ) ;
#91 = AXIS2_PLACEMENT_3D ( 'NONE', #35, #5, #273 ) ;
#92 = EDGE_CURVE ( 'NONE', #220, #160, #161, .T. ) ;
#93 = DIRECTION ( 'NONE',  ( 1.000000000000000000, 0.0000000000000000000, 0.0000000000000000000 ) ) ;
#94 = EDGE_LOOP ( 'NONE', ( #252, #18 ) ) ;
#95 = MECHANICAL_DESIGN_GEOMETRIC_PRESENTATION_REPRESENTATION (  '', ( #316 ), #266 ) ;
#96 = CIRCLE ( 'NONE', #115, 8.800000000000000700 ) ;
#97 = ORIENTED_EDGE ( 'NONE', *, *, #14, .F. ) ;
#98 = FACE_OUTER_BOUND ( 'NONE', #105, .T. ) ;
#99 = CARTESIAN_POINT ( 'NONE',  ( 7.799999999999987400, 0.0000000000000000000, -4.000000000000000000 ) ) ;
#100 = ADVANCED_FACE ( 'NONE', ( #98 ), #218, .F. ) ;
#101 = DIRECTION ( 'NONE',  ( 0.7071067811865487900, 0.0000000000000000000, 0.7071067811865463500 ) ) ;
#102 =( NAMED_UNIT ( * ) SI_UNIT ( $, .STERADIAN. ) SOLID_ANGLE_UNIT ( ) );
#103 = DIRECTION ( 'NONE',  ( -0.0000000000000000000, -0.0000000000000000000, -1.000000000000000000 ) ) ;
#104 = ORIENTED_EDGE ( 'NONE', *, *, #267, .F. ) ;
#105 = EDGE_LOOP ( 'NONE', ( #156, #223, #16, #182 ) ) ;
#106 = CIRCLE ( 'NONE', #287, 25.00000000000000000 ) ;
#107 = DIRECTION ( 'NONE',  ( 1.000000000000000000, 0.0000000000000000000, -0.0000000000000000000 ) ) ;
#108 = AXIS2_PLACEMENT_3D ( 'NONE', #84, #328, #61 ) ;
#109 = DIRECTION ( 'NONE',  ( 0.0000000000000000000, 0.0000000000000000000, -1.000000000000000000 ) ) ;
#110 = DIRECTION ( 'NONE',  ( 1.000000000000000000, 0.0000000000000000000, 0.0000000000000000000 ) ) ;
#111 = DIRECTION ( 'NONE',  ( -0.0000000000000000000, -0.0000000000000000000, -1.000000000000000000 ) ) ;
#112 = AXIS2_PLACEMENT_3D ( 'NONE', #140, #13, #304 ) ;
#113 = DIRECTION ( 'NONE',  ( -1.000000000000000000, 0.0000000000000000000, 0.0000000000000000000 ) ) ;
#114 = CARTESIAN_POINT ( 'NONE',  ( -5.000000000000000000, 0.0000000000000000000, 3.000000000000000000 ) ) ;
#115 = AXIS2_PLACEMENT_3D ( 'NONE', #177, #175, #178 ) ;
#116 = DIRECTION ( 'NONE',  ( 0.0000000000000000000, 0.0000000000000000000, -1.000000000000000000 ) ) ;
#117 = SHAPE_DEFINITION_REPRESENTATION ( #235, #15 ) ;
#118 = DIRECTION ( 'NONE',  ( -1.000000000000000000, 0.0000000000000000000, 0.0000000000000000000 ) ) ;
#119 = ORIENTED_EDGE ( 'NONE', *, *, #312, .F. ) ;
#120 = CARTESIAN_POINT ( 'NONE',  ( 8.800000000000000700, 0.0000000000000000000, -4.000000000000000000 ) ) ;
#121 = ORIENTED_EDGE ( 'NONE', *, *, #186, .F. ) ;
#122 = CIRCLE ( 'NONE', #238, 7.799999999999987400 ) ;
#123 = ORIENTED_EDGE ( 'NONE', *, *, #155, .T. ) ;
#124 = FACE_OUTER_BOUND ( 'NONE', #212, .T. ) ;
#125 = CONICAL_SURFACE ( 'NONE', #51, 7.799999999999987400, 0.7853981633974500600 ) ;
#126 = ORIENTED_EDGE ( 'NONE', *, *, #192, .T. ) ;
#127 = CIRCLE ( 'NONE', #6, 25.00000000000000000 ) ;
#128 = AXIS2_PLACEMENT_3D ( 'NONE', #11, #336, #113 ) ;
#129 = AXIS2_PLACEMENT_3D ( 'NONE', #68, #66, #89 ) ;
#130 = VECTOR ( 'NONE', #149, 1000.000000000000000 ) ;
#131 = CARTESIAN_POINT ( 'NONE',  ( 8.800000000000000700, 0.0000000000000000000, 0.0000000000000000000 ) ) ;
#132 = DIRECTION ( 'NONE',  ( 0.0000000000000000000, 0.0000000000000000000, -1.000000000000000000 ) ) ;
#133 = EDGE_LOOP ( 'NONE', ( #343, #202, #243, #194 ) ) ;
#134 = DIRECTION ( 'NONE',  ( -0.0000000000000000000, -0.0000000000000000000, 1.000000000000000000 ) ) ;
#135 = ORIENTED_EDGE ( 'NONE', *, *, #236, .F. ) ;
#136 = CARTESIAN_POINT ( 'NONE',  ( -8.800000000000000700, 1.077689183249670800E-015, 0.0000000000000000000 ) ) ;
#137 = APPLICATION_CONTEXT ( 'automotive_design' ) ;
#138 = DIRECTION ( 'NONE',  ( 0.0000000000000000000, 0.0000000000000000000, 1.000000000000000000 ) ) ;
#139 = FACE_BOUND ( 'NONE', #70, .T. ) ;
#140 = CARTESIAN_POINT ( 'NONE',  ( 0.0000000000000000000, 0.0000000000000000000, 0.0000000000000000000 ) ) ;
#141 = APPLICATION_PROTOCOL_DEFINITION ( 'draft international standard', 'automotive_design', 1998, #276 ) ;
#142 = EDGE_LOOP ( 'NONE', ( #104, #97, #323, #147 ) ) ;
#143 = ORIENTED_EDGE ( 'NONE', *, *, #261, .T. ) ;
#144 = PRODUCT_DEFINITION ( 'UNKNOWN', '', #211, #64 ) ;
#145 = DIRECTION ( 'NONE',  ( -0.7071067811865487900, 8.659560562354950100E-017, 0.7071067811865463500 ) ) ;
#146 = AXIS2_PLACEMENT_3D ( 'NONE', #228, #172, #118 ) ;
#147 = ORIENTED_EDGE ( 'NONE', *, *, #204, .T. ) ;
#148 = FACE_OUTER_BOUND ( 'NONE', #55, .T. ) ;
#149 = DIRECTION ( 'NONE',  ( -0.0000000000000000000, -0.0000000000000000000, -1.000000000000000000 ) ) ;
#150 = DIRECTION ( 'NONE',  ( 0.0000000000000000000, 0.0000000000000000000, 1.000000000000000000 ) ) ;
#151 = EDGE_LOOP ( 'NONE', ( #296, #152, #264, #135 ) ) ;
#152 = ORIENTED_EDGE ( 'NONE', *, *, #312, .T. ) ;
#153 = VECTOR ( 'NONE', #145, 1000.000000000000000 ) ;
#154 = DIRECTION ( 'NONE',  ( -1.000000000000000000, 0.0000000000000000000, 0.0000000000000000000 ) ) ;
#155 = EDGE_CURVE ( 'NONE', #307, #220, #127, .T. ) ;
#156 = ORIENTED_EDGE ( 'NONE', *, *, #183, .T. ) ;
#157 = EDGE_LOOP ( 'NONE', ( #173, #54, #53, #36 ) ) ;
#158 = SURFACE_SIDE_STYLE ('',( #341 ) ) ;
#159 =( NAMED_UNIT ( * ) PLANE_ANGLE_UNIT ( ) SI_UNIT ( $, .RADIAN. ) );
#160 = VERTEX_POINT ( 'NONE', #162 ) ;
#161 = LINE ( 'NONE', #270, #71 ) ;
#162 = CARTESIAN_POINT ( 'NONE',  ( -25.00000000000000000, 0.0000000000000000000, 0.0000000000000000000 ) ) ;
#163 = PRODUCT_RELATED_PRODUCT_CATEGORY ( 'part', '', ( #72 ) ) ;
#164 = DIRECTION ( 'NONE',  ( 0.0000000000000000000, 0.0000000000000000000, 1.000000000000000000 ) ) ;
#165 = CARTESIAN_POINT ( 'NONE',  ( 5.000000000000000000, 6.123233995736766300E-016, 3.000000000000000000 ) ) ;
#166 = LINE ( 'NONE', #326, #73 ) ;
#167 = ORIENTED_EDGE ( 'NONE', *, *, #298, .F. ) ;
#168 = AXIS2_PLACEMENT_3D ( 'NONE', #205, #116, #39 ) ;
#169 = DIRECTION ( 'NONE',  ( 0.0000000000000000000, 0.0000000000000000000, 1.000000000000000000 ) ) ;
#170 = FILL_AREA_STYLE ('',( #334 ) ) ;
#171 = FACE_OUTER_BOUND ( 'NONE', #302, .T. ) ;
#172 = DIRECTION ( 'NONE',  ( 0.0000000000000000000, 0.0000000000000000000, 1.000000000000000000 ) ) ;
#173 = ORIENTED_EDGE ( 'NONE', *, *, #332, .F. ) ;
#174 = PRESENTATION_STYLE_ASSIGNMENT (( #322 ) ) ;
#175 = DIRECTION ( 'NONE',  ( -0.0000000000000000000, -0.0000000000000000000, -1.000000000000000000 ) ) ;
#176 = ADVANCED_FACE ( 'NONE', ( #75 ), #23, .T. ) ;
#177 = CARTESIAN_POINT ( 'NONE',  ( 0.0000000000000000000, 0.0000000000000000000, 0.0000000000000000000 ) ) ;
#178 = DIRECTION ( 'NONE',  ( 1.000000000000000000, 0.0000000000000000000, 0.0000000000000000000 ) ) ;
#179 = AXIS2_PLACEMENT_3D ( 'NONE', #25, #190, #30 ) ;
#180 = ORIENTED_EDGE ( 'NONE', *, *, #187, .F. ) ;
#181 = ADVANCED_FACE ( 'NONE', ( #237 ), #213, .T. ) ;
#182 = ORIENTED_EDGE ( 'NONE', *, *, #2, .F. ) ;
#183 = EDGE_CURVE ( 'NONE', #188, #74, #206, .T. ) ;
#184 = VECTOR ( 'NONE', #134, 1000.000000000000000 ) ;
#185 = CARTESIAN_POINT ( 'NONE',  ( 25.00000000000000000, 3.061616997868383000E-015, 3.000000000000000000 ) ) ;
#186 = EDGE_CURVE ( 'NONE', #293, #196, #82, .T. ) ;
#187 = EDGE_CURVE ( 'NONE', #79, #77, #203, .T. ) ;
#188 = VERTEX_POINT ( 'NONE', #114 ) ;
#189 = EDGE_LOOP ( 'NONE', ( #239, #294 ) ) ;
#190 = DIRECTION ( 'NONE',  ( 0.0000000000000000000, 0.0000000000000000000, 1.000000000000000000 ) ) ;
#191 = DIRECTION ( 'NONE',  ( -1.000000000000000000, 0.0000000000000000000, 0.0000000000000000000 ) ) ;
#192 = EDGE_CURVE ( 'NONE', #280, #24, #262, .T. ) ;
#193 = SURFACE_STYLE_FILL_AREA ( #170 ) ;
#194 = ORIENTED_EDGE ( 'NONE', *, *, #92, .F. ) ;
#195 = CARTESIAN_POINT ( 'NONE',  ( 0.0000000000000000000, 0.0000000000000000000, -4.000000000000000000 ) ) ;
#196 = VERTEX_POINT ( 'NONE', #282 ) ;
#197 = DIRECTION ( 'NONE',  ( -1.000000000000000000, 0.0000000000000000000, -0.0000000000000000000 ) ) ;
#198 = SURFACE_SIDE_STYLE ('',( #193 ) ) ;
#199 = CARTESIAN_POINT ( 'NONE',  ( 0.0000000000000000000, 0.0000000000000000000, -2.999999999999990700 ) ) ;
#200 = ORIENTED_EDGE ( 'NONE', *, *, #229, .T. ) ;
#201 = MECHANICAL_DESIGN_GEOMETRIC_PRESENTATION_REPRESENTATION (  '', ( #40 ), #278 ) ;
#202 = ORIENTED_EDGE ( 'NONE', *, *, #267, .T. ) ;
#203 = CIRCLE ( 'NONE', #146, 8.800000000000000700 ) ;
#204 = EDGE_CURVE ( 'NONE', #160, #241, #90, .T. ) ;
#205 = CARTESIAN_POINT ( 'NONE',  ( 0.0000000000000000000, 0.0000000000000000000, -4.000000000000000000 ) ) ;
#206 = CIRCLE ( 'NONE', #41, 5.000000000000000000 ) ;
#207 = EDGE_LOOP ( 'NONE', ( #281, #225, #34, #180 ) ) ;
#208 = FACE_BOUND ( 'NONE', #47, .T. ) ;
#209 = PLANE ( 'NONE',  #331 ) ;
#210 = CARTESIAN_POINT ( 'NONE',  ( 0.0000000000000000000, 0.0000000000000000000, -4.000000000000000000 ) ) ;
#211 = PRODUCT_DEFINITION_FORMATION_WITH_SPECIFIED_SOURCE ( 'ANY', '', #72, .NOT_KNOWN. ) ;
#212 = EDGE_LOOP ( 'NONE', ( #126, #143 ) ) ;
#213 = CYLINDRICAL_SURFACE ( 'NONE', #76, 8.800000000000000700 ) ;
#214 = CLOSED_SHELL ( 'NONE', ( #234, #181, #100, #176, #46, #260, #20, #257, #44, #342, #344 ) ) ;
#215 = CARTESIAN_POINT ( 'NONE',  ( 7.799999999999987400, 0.0000000000000000000, -4.000000000000000000 ) ) ;
#216 = CARTESIAN_POINT ( 'NONE',  ( -8.800000000000000700, 1.077689183249670800E-015, -4.000000000000000000 ) ) ;
#217 = CARTESIAN_POINT ( 'NONE',  ( 0.0000000000000000000, 0.0000000000000000000, 0.0000000000000000000 ) ) ;
#218 = CYLINDRICAL_SURFACE ( 'NONE', #62, 5.000000000000000000 ) ;
#219 = AXIS2_PLACEMENT_3D ( 'NONE', #258, #21, #19 ) ;
#220 = VERTEX_POINT ( 'NONE', #337 ) ;
#221 = CARTESIAN_POINT ( 'NONE',  ( 0.0000000000000000000, 0.0000000000000000000, 3.000000000000000000 ) ) ;
#222 =( NAMED_UNIT ( * ) PLANE_ANGLE_UNIT ( ) SI_UNIT ( $, .RADIAN. ) );
#223 = ORIENTED_EDGE ( 'NONE', *, *, #332, .T. ) ;
#224 = CARTESIAN_POINT ( 'NONE',  ( 0.0000000000000000000, 0.0000000000000000000, 3.000000000000000000 ) ) ;
#225 = ORIENTED_EDGE ( 'NONE', *, *, #192, .F. ) ;
#226 = LINE ( 'NONE', #232, #153 ) ;
#227 = DIRECTION ( 'NONE',  ( 0.0000000000000000000, 0.0000000000000000000, 1.000000000000000000 ) ) ;
#228 = CARTESIAN_POINT ( 'NONE',  ( 0.0000000000000000000, 0.0000000000000000000, -2.999999999999990700 ) ) ;
#229 = EDGE_CURVE ( 'NONE', #24, #79, #226, .T. ) ;
#230 = DIRECTION ( 'NONE',  ( 1.000000000000000000, 0.0000000000000000000, 0.0000000000000000000 ) ) ;
#231 = AXIS2_PLACEMENT_3D ( 'NONE', #311, #339, #93 ) ;
#232 = CARTESIAN_POINT ( 'NONE',  ( -7.799999999999987400, 9.552245033349340800E-016, -4.000000000000000000 ) ) ;
#233 = AXIS2_PLACEMENT_3D ( 'NONE', #52, #103, #58 ) ;
#234 = ADVANCED_FACE ( 'NONE', ( #148 ), #250, .T. ) ;
#235 = PRODUCT_DEFINITION_SHAPE ( 'NONE', 'NONE',  #144 ) ;
#236 = EDGE_CURVE ( 'NONE', #77, #313, #295, .T. ) ;
#237 = FACE_OUTER_BOUND ( 'NONE', #151, .T. ) ;
#238 = AXIS2_PLACEMENT_3D ( 'NONE', #210, #290, #154 ) ;
#239 = ORIENTED_EDGE ( 'NONE', *, *, #204, .F. ) ;
#240 = CARTESIAN_POINT ( 'NONE',  ( 0.0000000000000000000, 0.0000000000000000000, 3.000000000000000000 ) ) ;
#241 = VERTEX_POINT ( 'NONE', #277 ) ;
#242 = CIRCLE ( 'NONE', #231, 8.800000000000000700 ) ;
#243 = ORIENTED_EDGE ( 'NONE', *, *, #56, .T. ) ;
#244 = UNCERTAINTY_MEASURE_WITH_UNIT (LENGTH_MEASURE( 1.000000000000000100E-005 ), #29, 'distance_accuracy_value', 'NONE');
#245 = FILL_AREA_STYLE ('',( #32 ) ) ;
#246 = CARTESIAN_POINT ( 'NONE',  ( 0.0000000000000000000, 0.0000000000000000000, 0.0000000000000000000 ) ) ;
#247 = EDGE_CURVE ( 'NONE', #26, #313, #242, .T. ) ;
#248 = SURFACE_STYLE_USAGE ( .BOTH. , #198 ) ;
#249 = ORIENTED_EDGE ( 'NONE', *, *, #187, .T. ) ;
#250 = CONICAL_SURFACE ( 'NONE', #129, 7.799999999999987400, 0.7853981633974500600 ) ;
#251 =( NAMED_UNIT ( * ) SI_UNIT ( $, .STERADIAN. ) SOLID_ANGLE_UNIT ( ) );
#252 = ORIENTED_EDGE ( 'NONE', *, *, #255, .F. ) ;
#253 = LINE ( 'NONE', #216, #184 ) ;
#254 = CARTESIAN_POINT ( 'NONE',  ( 0.0000000000000000000, 0.0000000000000000000, 3.000000000000000000 ) ) ;
#255 = EDGE_CURVE ( 'NONE', #313, #26, #96, .T. ) ;
#256 = FACE_OUTER_BOUND ( 'NONE', #157, .T. ) ;
#257 = ADVANCED_FACE ( 'NONE', ( #256 ), #42, .F. ) ;
#258 = CARTESIAN_POINT ( 'NONE',  ( 0.0000000000000000000, 0.0000000000000000000, 3.000000000000000000 ) ) ;
#259 = ORIENTED_EDGE ( 'NONE', *, *, #14, .T. ) ;
#260 = ADVANCED_FACE ( 'NONE', ( #83, #139 ), #209, .T. ) ;
#261 = EDGE_CURVE ( 'NONE', #24, #280, #122, .T. ) ;
#262 = CIRCLE ( 'NONE', #168, 7.799999999999987400 ) ;
#263 = ORIENTED_EDGE ( 'NONE', *, *, #236, .T. ) ;
#264 = ORIENTED_EDGE ( 'NONE', *, *, #247, .T. ) ;
#265 = CIRCLE ( 'NONE', #318, 25.00000000000000000 ) ;
#266 =( GEOMETRIC_REPRESENTATION_CONTEXT ( 3 ) GLOBAL_UNCERTAINTY_ASSIGNED_CONTEXT ( ( #60 ) ) GLOBAL_UNIT_ASSIGNED_CONTEXT ( ( #85, #222, #271 ) ) REPRESENTATION_CONTEXT ( 'NONE', 'WORKASPACE' ) );
#267 = EDGE_CURVE ( 'NONE', #307, #241, #50, .T. ) ;
#268 = CARTESIAN_POINT ( 'NONE',  ( 0.0000000000000000000, 0.0000000000000000000, -4.000000000000000000 ) ) ;
#269 = VECTOR ( 'NONE', #309, 1000.000000000000000 ) ;
#270 = CARTESIAN_POINT ( 'NONE',  ( -25.00000000000000000, 0.0000000000000000000, 3.000000000000000000 ) ) ;
#271 =( NAMED_UNIT ( * ) SI_UNIT ( $, .STERADIAN. ) SOLID_ANGLE_UNIT ( ) );
#272 = DIRECTION ( 'NONE',  ( -1.000000000000000000, 0.0000000000000000000, 0.0000000000000000000 ) ) ;
#273 = DIRECTION ( 'NONE',  ( -1.000000000000000000, 0.0000000000000000000, 0.0000000000000000000 ) ) ;
#274 = CARTESIAN_POINT ( 'NONE',  ( 8.800000000000000700, 0.0000000000000000000, -2.999999999999990700 ) ) ;
#275 = LINE ( 'NONE', #284, #130 ) ;
#276 = APPLICATION_CONTEXT ( 'automotive_design' ) ;
#277 = CARTESIAN_POINT ( 'NONE',  ( 25.00000000000000000, 3.061616997868383000E-015, 0.0000000000000000000 ) ) ;
#278 =( GEOMETRIC_REPRESENTATION_CONTEXT ( 3 ) GLOBAL_UNCERTAINTY_ASSIGNED_CONTEXT ( ( #43 ) ) GLOBAL_UNIT_ASSIGNED_CONTEXT ( ( #324, #159, #102 ) ) REPRESENTATION_CONTEXT ( 'NONE', 'WORKASPACE' ) );
#279 = DIRECTION ( 'NONE',  ( 0.0000000000000000000, 0.0000000000000000000, 1.000000000000000000 ) ) ;
#280 = VERTEX_POINT ( 'NONE', #99 ) ;
#281 = ORIENTED_EDGE ( 'NONE', *, *, #229, .F. ) ;
#282 = CARTESIAN_POINT ( 'NONE',  ( -5.000000000000000000, 0.0000000000000000000, -4.000000000000000000 ) ) ;
#283 = AXIS2_PLACEMENT_3D ( 'NONE', #195, #132, #197 ) ;
#284 = CARTESIAN_POINT ( 'NONE',  ( -5.000000000000000000, 0.0000000000000000000, 3.000000000000000000 ) ) ;
#285 = CARTESIAN_POINT ( 'NONE',  ( 0.0000000000000000000, 0.0000000000000000000, 3.000000000000000000 ) ) ;
#286 = DIRECTION ( 'NONE',  ( 1.000000000000000000, 0.0000000000000000000, -0.0000000000000000000 ) ) ;
#287 = AXIS2_PLACEMENT_3D ( 'NONE', #240, #28, #80 ) ;
#288 = CIRCLE ( 'NONE', #325, 8.800000000000000700 ) ;
#289 = ORIENTED_EDGE ( 'NONE', *, *, #255, .T. ) ;
#290 = DIRECTION ( 'NONE',  ( 0.0000000000000000000, 0.0000000000000000000, -1.000000000000000000 ) ) ;
#291 = EDGE_CURVE ( 'NONE', #280, #77, #17, .T. ) ;
#292 = CARTESIAN_POINT ( 'NONE',  ( 0.0000000000000000000, 0.0000000000000000000, -4.000000000000000000 ) ) ;
#293 = VERTEX_POINT ( 'NONE', #49 ) ;
#294 = ORIENTED_EDGE ( 'NONE', *, *, #56, .F. ) ;
#295 = LINE ( 'NONE', #120, #269 ) ;
#296 = ORIENTED_EDGE ( 'NONE', *, *, #31, .T. ) ;
#297 = PLANE ( 'NONE',  #283 ) ;
#298 = EDGE_CURVE ( 'NONE', #74, #188, #321, .T. ) ;
#299 = PRODUCT_CONTEXT ( 'NONE', #276, 'mechanical' ) ;
#300 = DIRECTION ( 'NONE',  ( 0.0000000000000000000, 0.0000000000000000000, 1.000000000000000000 ) ) ;
#301 = PRESENTATION_STYLE_ASSIGNMENT (( #248 ) ) ;
#302 = EDGE_LOOP ( 'NONE', ( #119, #249, #263, #289 ) ) ;
#303 = CARTESIAN_POINT ( 'NONE',  ( -7.799999999999987400, 1.016456843292302400E-015, -4.000000000000000000 ) ) ;
#304 = DIRECTION ( 'NONE',  ( 1.000000000000000000, 0.0000000000000000000, 0.0000000000000000000 ) ) ;
#305 = CYLINDRICAL_SURFACE ( 'NONE', #233, 25.00000000000000000 ) ;
#306 = EDGE_CURVE ( 'NONE', #196, #293, #308, .T. ) ;
#307 = VERTEX_POINT ( 'NONE', #48 ) ;
#308 = CIRCLE ( 'NONE', #1, 5.000000000000000000 ) ;
#309 = DIRECTION ( 'NONE',  ( -0.0000000000000000000, -0.0000000000000000000, 1.000000000000000000 ) ) ;
#310 =( GEOMETRIC_REPRESENTATION_CONTEXT ( 3 ) GLOBAL_UNCERTAINTY_ASSIGNED_CONTEXT ( ( #244 ) ) GLOBAL_UNIT_ASSIGNED_CONTEXT ( ( #29, #81, #251 ) ) REPRESENTATION_CONTEXT ( 'NONE', 'WORKASPACE' ) );
#311 = CARTESIAN_POINT ( 'NONE',  ( 0.0000000000000000000, 0.0000000000000000000, 0.0000000000000000000 ) ) ;
#312 = EDGE_CURVE ( 'NONE', #79, #26, #253, .T. ) ;
#313 = VERTEX_POINT ( 'NONE', #131 ) ;
#314 = FACE_BOUND ( 'NONE', #94, .T. ) ;
#315 = ORIENTED_EDGE ( 'NONE', *, *, #261, .F. ) ;
#316 = STYLED_ITEM ( 'NONE', ( #301 ), #15 ) ;
#317 = MANIFOLD_SOLID_BREP ( 'Chanfrein1', #214 ) ;
#318 = AXIS2_PLACEMENT_3D ( 'NONE', #329, #138, #33 ) ;
#319 = DIRECTION ( 'NONE',  ( -0.0000000000000000000, -0.0000000000000000000, -1.000000000000000000 ) ) ;
#320 = PRESENTATION_LAYER_ASSIGNMENT (  '', '', ( #316 ) ) ;
#321 = CIRCLE ( 'NONE', #179, 5.000000000000000000 ) ;
#322 = SURFACE_STYLE_USAGE ( .BOTH. , #158 ) ;
#323 = ORIENTED_EDGE ( 'NONE', *, *, #92, .T. ) ;
#324 =( LENGTH_UNIT ( ) NAMED_UNIT ( * ) SI_UNIT ( .MILLI., .METRE. ) );
#325 = AXIS2_PLACEMENT_3D ( 'NONE', #199, #300, #330 ) ;
#326 = CARTESIAN_POINT ( 'NONE',  ( 5.000000000000000000, 6.123233995736766300E-016, 3.000000000000000000 ) ) ;
#327 = DIRECTION ( 'NONE',  ( -0.0000000000000000000, -0.0000000000000000000, -1.000000000000000000 ) ) ;
#328 = DIRECTION ( 'NONE',  ( -0.0000000000000000000, -0.0000000000000000000, 1.000000000000000000 ) ) ;
#329 = CARTESIAN_POINT ( 'NONE',  ( 0.0000000000000000000, 0.0000000000000000000, 0.0000000000000000000 ) ) ;
#330 = DIRECTION ( 'NONE',  ( -1.000000000000000000, 0.0000000000000000000, 0.0000000000000000000 ) ) ;
#331 = AXIS2_PLACEMENT_3D ( 'NONE', #285, #150, #286 ) ;
#332 = EDGE_CURVE ( 'NONE', #74, #293, #166, .T. ) ;
#333 = ORIENTED_EDGE ( 'NONE', *, *, #291, .F. ) ;
#334 = FILL_AREA_STYLE_COLOUR ( '', #69 ) ;
#335 = DIRECTION ( 'NONE',  ( 1.000000000000000000, 0.0000000000000000000, 0.0000000000000000000 ) ) ;
#336 = DIRECTION ( 'NONE',  ( 0.0000000000000000000, 0.0000000000000000000, -1.000000000000000000 ) ) ;
#337 = CARTESIAN_POINT ( 'NONE',  ( -25.00000000000000000, 0.0000000000000000000, 3.000000000000000000 ) ) ;
#338 = AXIS2_PLACEMENT_3D ( 'NONE', #246, #169, #107 ) ;
#339 = DIRECTION ( 'NONE',  ( -0.0000000000000000000, -0.0000000000000000000, -1.000000000000000000 ) ) ;
#340 = ORIENTED_EDGE ( 'NONE', *, *, #183, .F. ) ;
#341 = SURFACE_STYLE_FILL_AREA ( #245 ) ;
#342 = ADVANCED_FACE ( 'NONE', ( #171 ), #4, .T. ) ;
#343 = ORIENTED_EDGE ( 'NONE', *, *, #155, .F. ) ;
#344 = ADVANCED_FACE ( 'NONE', ( #12 ), #125, .T. ) ;
ENDSEC;
END-ISO-10303-21;
