ISO-10303-21;
HEADER;
FILE_DESCRIPTION (( 'STEP AP214' ),
    '1' );
FILE_NAME ('Barre gouvernail.STEP',
    '2020-01-14T19:16:02',
    ( 'Olivier' ),
    ( 'Microsoft' ),
    'SwSTEP 2.0',
    'SolidWorks 2010',
    '' );
FILE_SCHEMA (( 'AUTOMOTIVE_DESIGN' ));
ENDSEC;

DATA;
#1 = AXIS2_PLACEMENT_3D ( 'NONE', #304, #305, #306 ) ;
#2 = MECHANICAL_DESIGN_GEOMETRIC_PRESENTATION_REPRESENTATION (  '', ( #166 ), #167 ) ;
#3 = AXIS2_PLACEMENT_3D ( 'NONE', #242, #243, #244 ) ;
#4 = AXIS2_PLACEMENT_3D ( 'NONE', #245, #246, #247 ) ;
#5 = AXIS2_PLACEMENT_3D ( 'NONE', #227, #229, #230 ) ;
#6 = PRODUCT_DEFINITION ( 'UNKNOWN', '', #68, #321 ) ;
#7 = AXIS2_PLACEMENT_3D ( 'NONE', #254, #259, #260 ) ;
#8 = AXIS2_PLACEMENT_3D ( 'NONE', #264, #274, #275 ) ;
#9 = AXIS2_PLACEMENT_3D ( 'NONE', #253, #255, #256 ) ;
#10 = AXIS2_PLACEMENT_3D ( 'NONE', #240, #248, #249 ) ;
#11 = PRESENTATION_LAYER_ASSIGNMENT (  '', '', ( #166 ) ) ;
#12 = AXIS2_PLACEMENT_3D ( 'NONE', #215, #231, #232 ) ;
#13 = MECHANICAL_DESIGN_GEOMETRIC_PRESENTATION_REPRESENTATION (  '', ( #157 ), #161 ) ;
#14 = AXIS2_PLACEMENT_3D ( 'NONE', #261, #262, #263 ) ;
#15 = AXIS2_PLACEMENT_3D ( 'NONE', #250, #257, #258 ) ;
#16 = AXIS2_PLACEMENT_3D ( 'NONE', #267, #269, #270 ) ;
#17 = AXIS2_PLACEMENT_3D ( 'NONE', #268, #278, #279 ) ;
#18 = PRESENTATION_LAYER_ASSIGNMENT (  '', '', ( #157 ) ) ;
#19 = ORIENTED_EDGE ( 'NONE', *, *, #48, .T. ) ;
#20 = ORIENTED_EDGE ( 'NONE', *, *, #46, .T. ) ;
#21 = CLOSED_SHELL ( 'NONE', ( #29, #30, #31, #32, #33, #34, #35, #36 ) ) ;
#22 = ORIENTED_EDGE ( 'NONE', *, *, #47, .T. ) ;
#23 = ORIENTED_EDGE ( 'NONE', *, *, #44, .F. ) ;
#24 = ORIENTED_EDGE ( 'NONE', *, *, #37, .T. ) ;
#25 = ORIENTED_EDGE ( 'NONE', *, *, #39, .F. ) ;
#26 = ORIENTED_EDGE ( 'NONE', *, *, #43, .F. ) ;
#27 = ORIENTED_EDGE ( 'NONE', *, *, #45, .T. ) ;
#28 = PRODUCT ( 'Barre gouvernail', 'Barre gouvernail', '', ( #309 ) ) ;
#29 = ADVANCED_FACE ( 'NONE', ( #106 ), #107, .T. ) ;
#30 = ADVANCED_FACE ( 'NONE', ( #105 ), #104, .T. ) ;
#31 = ADVANCED_FACE ( 'NONE', ( #108 ), #109, .T. ) ;
#32 = ADVANCED_FACE ( 'NONE', ( #115 ), #116, .T. ) ;
#33 = ADVANCED_FACE ( 'NONE', ( #122 ), #130, .T. ) ;
#34 = ADVANCED_FACE ( 'NONE', ( #123 ), #129, .T. ) ;
#35 = ADVANCED_FACE ( 'NONE', ( #124 ), #228, .T. ) ;
#36 = ADVANCED_FACE ( 'NONE', ( #137 ), #226, .F. ) ;
#37 = EDGE_CURVE ( 'NONE', #179, #171, #140, .T. ) ;
#38 = MECHANICAL_DESIGN_GEOMETRIC_PRESENTATION_REPRESENTATION (  '', ( #113 ), #114 ) ;
#39 = EDGE_CURVE ( 'NONE', #172, #180, #142, .T. ) ;
#40 = PRESENTATION_LAYER_ASSIGNMENT (  '', '', ( #120 ) ) ;
#41 = AXIS2_PLACEMENT_3D ( 'NONE', #174, #176, #175 ) ;
#42 = EDGE_CURVE ( 'NONE', #171, #170, #141, .T. ) ;
#43 = EDGE_CURVE ( 'NONE', #179, #172, #143, .T. ) ;
#44 = EDGE_CURVE ( 'NONE', #181, #179, #145, .T. ) ;
#45 = EDGE_CURVE ( 'NONE', #171, #173, #146, .T. ) ;
#46 = EDGE_CURVE ( 'NONE', #181, #182, #132, .T. ) ;
#47 = EDGE_CURVE ( 'NONE', #173, #180, #149, .T. ) ;
#48 = EDGE_CURVE ( 'NONE', #182, #170, #151, .T. ) ;
#49 = EDGE_CURVE ( 'NONE', #177, #178, #152, .T. ) ;
#50 = EDGE_CURVE ( 'NONE', #173, #181, #153, .T. ) ;
#51 = EDGE_CURVE ( 'NONE', #172, #178, #148, .T. ) ;
#52 = EDGE_CURVE ( 'NONE', #180, #172, #156, .T. ) ;
#53 = EDGE_CURVE ( 'NONE', #180, #177, #147, .T. ) ;
#54 = EDGE_CURVE ( 'NONE', #178, #177, #159, .T. ) ;
#55 = EDGE_CURVE ( 'NONE', #170, #182, #160, .T. ) ;
#56 = PRESENTATION_LAYER_ASSIGNMENT (  '', '', ( #113 ) ) ;
#57 = PRESENTATION_LAYER_ASSIGNMENT (  '', '', ( #135 ) ) ;
#58 = PRESENTATION_LAYER_ASSIGNMENT (  '', '', ( #127 ) ) ;
#59 = MECHANICAL_DESIGN_GEOMETRIC_PRESENTATION_REPRESENTATION (  '', ( #120 ), #121 ) ;
#60 = AXIS2_PLACEMENT_3D ( 'NONE', #191, #183, #169 ) ;
#61 = AXIS2_PLACEMENT_3D ( 'NONE', #214, #213, #216 ) ;
#62 = MECHANICAL_DESIGN_GEOMETRIC_PRESENTATION_REPRESENTATION (  '', ( #127 ), #128 ) ;
#63 = AXIS2_PLACEMENT_3D ( 'NONE', #201, #193, #192 ) ;
#64 = MECHANICAL_DESIGN_GEOMETRIC_PRESENTATION_REPRESENTATION (  '', ( #135 ), #136 ) ;
#65 = PRODUCT_RELATED_PRODUCT_CATEGORY ( 'part', '', ( #28 ) ) ;
#66 = AXIS2_PLACEMENT_3D ( 'NONE', #211, #203, #202 ) ;
#67 = AXIS2_PLACEMENT_3D ( 'NONE', #237, #238, #239 ) ;
#68 = PRODUCT_DEFINITION_FORMATION_WITH_SPECIFIED_SOURCE ( 'ANY', '', #28, .NOT_KNOWN. ) ;
#69 = AXIS2_PLACEMENT_3D ( 'NONE', #233, #235, #236 ) ;
#70 = AXIS2_PLACEMENT_3D ( 'NONE', #225, #217, #212 ) ;
#71 = ORIENTED_EDGE ( 'NONE', *, *, #39, .T. ) ;
#72 = ORIENTED_EDGE ( 'NONE', *, *, #49, .F. ) ;
#73 = ORIENTED_EDGE ( 'NONE', *, *, #55, .T. ) ;
#74 = ORIENTED_EDGE ( 'NONE', *, *, #47, .F. ) ;
#75 = ORIENTED_EDGE ( 'NONE', *, *, #51, .F. ) ;
#76 = ORIENTED_EDGE ( 'NONE', *, *, #50, .T. ) ;
#77 = ORIENTED_EDGE ( 'NONE', *, *, #50, .F. ) ;
#78 = ORIENTED_EDGE ( 'NONE', *, *, #42, .T. ) ;
#79 = ORIENTED_EDGE ( 'NONE', *, *, #52, .F. ) ;
#80 = ORIENTED_EDGE ( 'NONE', *, *, #54, .F. ) ;
#81 = ORIENTED_EDGE ( 'NONE', *, *, #53, .F. ) ;
#82 = ORIENTED_EDGE ( 'NONE', *, *, #51, .T. ) ;
#83 = ORIENTED_EDGE ( 'NONE', *, *, #42, .F. ) ;
#84 = EDGE_LOOP ( 'NONE', ( #85, #82, #72, #81 ) ) ;
#85 = ORIENTED_EDGE ( 'NONE', *, *, #52, .T. ) ;
#86 = ORIENTED_EDGE ( 'NONE', *, *, #49, .T. ) ;
#87 = ORIENTED_EDGE ( 'NONE', *, *, #53, .T. ) ;
#88 = ORIENTED_EDGE ( 'NONE', *, *, #46, .F. ) ;
#89 = ORIENTED_EDGE ( 'NONE', *, *, #44, .T. ) ;
#90 = ORIENTED_EDGE ( 'NONE', *, *, #43, .T. ) ;
#91 = ORIENTED_EDGE ( 'NONE', *, *, #45, .F. ) ;
#92 = ORIENTED_EDGE ( 'NONE', *, *, #55, .F. ) ;
#93 = EDGE_LOOP ( 'NONE', ( #74, #76, #89, #90, #79 ) ) ;
#94 = ORIENTED_EDGE ( 'NONE', *, *, #54, .T. ) ;
#95 = ORIENTED_EDGE ( 'NONE', *, *, #37, .F. ) ;
#96 = ORIENTED_EDGE ( 'NONE', *, *, #48, .F. ) ;
#97 = EDGE_LOOP ( 'NONE', ( #27, #22, #25, #26, #24 ) ) ;
#98 = EDGE_LOOP ( 'NONE', ( #92, #96 ) ) ;
#99 = EDGE_LOOP ( 'NONE', ( #75, #71, #87, #80 ) ) ;
#100 = EDGE_LOOP ( 'NONE', ( #23, #20, #19, #83, #95 ) ) ;
#101 = EDGE_LOOP ( 'NONE', ( #88, #77, #91, #78, #73 ) ) ;
#102 = EDGE_LOOP ( 'NONE', ( #86, #94 ) ) ;
#103 = SURFACE_STYLE_FILL_AREA ( #185 ) ;
#104 = CYLINDRICAL_SURFACE ( 'NONE', #60, 5.000000000000000000 ) ;
#105 = FACE_OUTER_BOUND ( 'NONE', #100, .T. ) ;
#106 = FACE_OUTER_BOUND ( 'NONE', #97, .T. ) ;
#107 = TOROIDAL_SURFACE ( 'NONE', #41, 25.00000000000000000, 5.000000000000000000 ) ;
#108 = FACE_OUTER_BOUND ( 'NONE', #84, .T. ) ;
#109 = CYLINDRICAL_SURFACE ( 'NONE', #63, 4.999999999999998200 ) ;
#110 = SURFACE_STYLE_FILL_AREA ( #195 ) ;
#111 = COLOUR_RGB ( '',0.7921568627450980000, 0.8196078431372548800, 0.9333333333333333500 ) ;
#112 = PRESENTATION_STYLE_ASSIGNMENT (( #187 ) ) ;
#113 = STYLED_ITEM ( 'NONE', ( #112 ), #30 ) ;
#114 =( GEOMETRIC_REPRESENTATION_CONTEXT ( 3 ) GLOBAL_UNCERTAINTY_ASSIGNED_CONTEXT ( ( #313 ) ) GLOBAL_UNIT_ASSIGNED_CONTEXT ( ( #188, #189, #190 ) ) REPRESENTATION_CONTEXT ( 'NONE', 'WORKASPACE' ) );
#115 = FACE_OUTER_BOUND ( 'NONE', #99, .T. ) ;
#116 = CYLINDRICAL_SURFACE ( 'NONE', #66, 4.999999999999998200 ) ;
#117 = SURFACE_STYLE_FILL_AREA ( #205 ) ;
#118 = COLOUR_RGB ( '',0.7921568627450980000, 0.8196078431372548800, 0.9333333333333333500 ) ;
#119 = PRESENTATION_STYLE_ASSIGNMENT (( #197 ) ) ;
#120 = STYLED_ITEM ( 'NONE', ( #119 ), #31 ) ;
#121 =( GEOMETRIC_REPRESENTATION_CONTEXT ( 3 ) GLOBAL_UNCERTAINTY_ASSIGNED_CONTEXT ( ( #318 ) ) GLOBAL_UNIT_ASSIGNED_CONTEXT ( ( #198, #199, #200 ) ) REPRESENTATION_CONTEXT ( 'NONE', 'WORKASPACE' ) );
#122 = FACE_OUTER_BOUND ( 'NONE', #93, .T. ) ;
#123 = FACE_OUTER_BOUND ( 'NONE', #101, .T. ) ;
#124 = FACE_OUTER_BOUND ( 'NONE', #102, .T. ) ;
#125 = COLOUR_RGB ( '',0.7921568627450980000, 0.8196078431372548800, 0.9333333333333333500 ) ;
#126 = PRESENTATION_STYLE_ASSIGNMENT (( #207 ) ) ;
#127 = STYLED_ITEM ( 'NONE', ( #126 ), #32 ) ;
#128 =( GEOMETRIC_REPRESENTATION_CONTEXT ( 3 ) GLOBAL_UNCERTAINTY_ASSIGNED_CONTEXT ( ( #315 ) ) GLOBAL_UNIT_ASSIGNED_CONTEXT ( ( #208, #209, #210 ) ) REPRESENTATION_CONTEXT ( 'NONE', 'WORKASPACE' ) );
#129 = CYLINDRICAL_SURFACE ( 'NONE', #70, 5.000000000000000000 ) ;
#130 = TOROIDAL_SURFACE ( 'NONE', #61, 25.00000000000000000, 5.000000000000000000 ) ;
#131 = SURFACE_STYLE_FILL_AREA ( #219 ) ;
#132 = LINE ( 'NONE', #251, #144 ) ;
#133 = COLOUR_RGB ( '',0.7921568627450980000, 0.8196078431372548800, 0.9333333333333333500 ) ;
#134 = PRESENTATION_STYLE_ASSIGNMENT (( #221 ) ) ;
#135 = STYLED_ITEM ( 'NONE', ( #134 ), #34 ) ;
#136 =( GEOMETRIC_REPRESENTATION_CONTEXT ( 3 ) GLOBAL_UNCERTAINTY_ASSIGNED_CONTEXT ( ( #314 ) ) GLOBAL_UNIT_ASSIGNED_CONTEXT ( ( #222, #223, #224 ) ) REPRESENTATION_CONTEXT ( 'NONE', 'WORKASPACE' ) );
#137 = FACE_OUTER_BOUND ( 'NONE', #98, .T. ) ;
#138 = VECTOR ( 'NONE', #266, 1000.000000000000000 ) ;
#139 = VECTOR ( 'NONE', #241, 1000.000000000000000 ) ;
#140 = CIRCLE ( 'NONE', #69, 5.000000000000000000 ) ;
#141 = LINE ( 'NONE', #234, #139 ) ;
#142 = CIRCLE ( 'NONE', #67, 5.000000000000000000 ) ;
#143 = CIRCLE ( 'NONE', #3, 20.00000000000000000 ) ;
#144 = VECTOR ( 'NONE', #252, 1000.000000000000000 ) ;
#145 = CIRCLE ( 'NONE', #4, 5.000000000000000000 ) ;
#146 = CIRCLE ( 'NONE', #10, 5.000000000000000000 ) ;
#147 = LINE ( 'NONE', #271, #150 ) ;
#148 = LINE ( 'NONE', #265, #138 ) ;
#149 = CIRCLE ( 'NONE', #9, 30.00000000000000400 ) ;
#150 = VECTOR ( 'NONE', #272, 1000.000000000000000 ) ;
#151 = CIRCLE ( 'NONE', #15, 5.000000000000000000 ) ;
#152 = CIRCLE ( 'NONE', #7, 5.000000000000000000 ) ;
#153 = CIRCLE ( 'NONE', #14, 5.000000000000000000 ) ;
#154 = COLOUR_RGB ( '',0.7921568627450980000, 0.8196078431372548800, 0.9333333333333333500 ) ;
#155 = PRESENTATION_STYLE_ASSIGNMENT (( #290 ) ) ;
#156 = CIRCLE ( 'NONE', #16, 5.000000000000000000 ) ;
#157 = STYLED_ITEM ( 'NONE', ( #155 ), #316 ) ;
#158 = SURFACE_STYLE_FILL_AREA ( #288 ) ;
#159 = CIRCLE ( 'NONE', #8, 5.000000000000000000 ) ;
#160 = CIRCLE ( 'NONE', #17, 5.000000000000000000 ) ;
#161 =( GEOMETRIC_REPRESENTATION_CONTEXT ( 3 ) GLOBAL_UNCERTAINTY_ASSIGNED_CONTEXT ( ( #312 ) ) GLOBAL_UNIT_ASSIGNED_CONTEXT ( ( #291, #292, #293 ) ) REPRESENTATION_CONTEXT ( 'NONE', 'WORKASPACE' ) );
#162 =( GEOMETRIC_REPRESENTATION_CONTEXT ( 3 ) GLOBAL_UNCERTAINTY_ASSIGNED_CONTEXT ( ( #317 ) ) GLOBAL_UNIT_ASSIGNED_CONTEXT ( ( #294, #295, #296 ) ) REPRESENTATION_CONTEXT ( 'NONE', 'WORKASPACE' ) );
#163 = COLOUR_RGB ( '',0.7921568627450980000, 0.8196078431372548800, 0.9333333333333333500 ) ;
#164 = SURFACE_STYLE_FILL_AREA ( #298 ) ;
#165 = PRESENTATION_STYLE_ASSIGNMENT (( #300 ) ) ;
#166 = STYLED_ITEM ( 'NONE', ( #165 ), #319 ) ;
#167 =( GEOMETRIC_REPRESENTATION_CONTEXT ( 3 ) GLOBAL_UNCERTAINTY_ASSIGNED_CONTEXT ( ( #320 ) ) GLOBAL_UNIT_ASSIGNED_CONTEXT ( ( #301, #302, #303 ) ) REPRESENTATION_CONTEXT ( 'NONE', 'WORKASPACE' ) );
#168 = SHAPE_DEFINITION_REPRESENTATION ( #322, #319 ) ;
#169 = DIRECTION ( 'NONE',  ( 0.0000000000000000000, 0.0000000000000000000, -1.000000000000000000 ) ) ;
#170 = VERTEX_POINT ( 'NONE', #281 ) ;
#171 = VERTEX_POINT ( 'NONE', #282 ) ;
#172 = VERTEX_POINT ( 'NONE', #276 ) ;
#173 = VERTEX_POINT ( 'NONE', #283 ) ;
#174 = CARTESIAN_POINT ( 'NONE',  ( 25.00000000000000000, 840.0000000000000000, 0.0000000000000000000 ) ) ;
#175 = DIRECTION ( 'NONE',  ( -1.000000000000000000, 0.0000000000000000000, 0.0000000000000000000 ) ) ;
#176 = DIRECTION ( 'NONE',  ( -0.0000000000000000000, -0.0000000000000000000, -1.000000000000000000 ) ) ;
#177 = VERTEX_POINT ( 'NONE', #277 ) ;
#178 = VERTEX_POINT ( 'NONE', #284 ) ;
#179 = VERTEX_POINT ( 'NONE', #280 ) ;
#180 = VERTEX_POINT ( 'NONE', #285 ) ;
#181 = VERTEX_POINT ( 'NONE', #273 ) ;
#182 = VERTEX_POINT ( 'NONE', #286 ) ;
#183 = DIRECTION ( 'NONE',  ( -0.0000000000000000000, -1.000000000000000000, -0.0000000000000000000 ) ) ;
#184 = FILL_AREA_STYLE_COLOUR ( '', #111 ) ;
#185 = FILL_AREA_STYLE ('',( #184 ) ) ;
#186 = SURFACE_SIDE_STYLE ('',( #103 ) ) ;
#187 = SURFACE_STYLE_USAGE ( .BOTH. , #186 ) ;
#188 =( LENGTH_UNIT ( ) NAMED_UNIT ( * ) SI_UNIT ( .MILLI., .METRE. ) );
#189 =( NAMED_UNIT ( * ) PLANE_ANGLE_UNIT ( ) SI_UNIT ( $, .RADIAN. ) );
#190 =( NAMED_UNIT ( * ) SI_UNIT ( $, .STERADIAN. ) SOLID_ANGLE_UNIT ( ) );
#191 = CARTESIAN_POINT ( 'NONE',  ( 0.0000000000000000000, 840.0000000000000000, 0.0000000000000000000 ) ) ;
#192 = DIRECTION ( 'NONE',  ( -0.5735764363510405000, 0.8191520442889958000, 0.0000000000000000000 ) ) ;
#193 = DIRECTION ( 'NONE',  ( 0.8191520442889959100, 0.5735764363510402800, 0.0000000000000000000 ) ) ;
#194 = FILL_AREA_STYLE_COLOUR ( '', #118 ) ;
#195 = FILL_AREA_STYLE ('',( #194 ) ) ;
#196 = SURFACE_SIDE_STYLE ('',( #110 ) ) ;
#197 = SURFACE_STYLE_USAGE ( .BOTH. , #196 ) ;
#198 =( LENGTH_UNIT ( ) NAMED_UNIT ( * ) SI_UNIT ( .MILLI., .METRE. ) );
#199 =( NAMED_UNIT ( * ) PLANE_ANGLE_UNIT ( ) SI_UNIT ( $, .RADIAN. ) );
#200 =( NAMED_UNIT ( * ) SI_UNIT ( $, .STERADIAN. ) SOLID_ANGLE_UNIT ( ) );
#201 = CARTESIAN_POINT ( 'NONE',  ( 10.66058909122402600, 860.4788011072248500, 0.0000000000000000000 ) ) ;
#202 = DIRECTION ( 'NONE',  ( -0.5735764363510405000, 0.8191520442889958000, 0.0000000000000000000 ) ) ;
#203 = DIRECTION ( 'NONE',  ( 0.8191520442889959100, 0.5735764363510402800, 0.0000000000000000000 ) ) ;
#204 = FILL_AREA_STYLE_COLOUR ( '', #125 ) ;
#205 = FILL_AREA_STYLE ('',( #204 ) ) ;
#206 = SURFACE_SIDE_STYLE ('',( #117 ) ) ;
#207 = SURFACE_STYLE_USAGE ( .BOTH. , #206 ) ;
#208 =( LENGTH_UNIT ( ) NAMED_UNIT ( * ) SI_UNIT ( .MILLI., .METRE. ) );
#209 =( NAMED_UNIT ( * ) PLANE_ANGLE_UNIT ( ) SI_UNIT ( $, .RADIAN. ) );
#210 =( NAMED_UNIT ( * ) SI_UNIT ( $, .STERADIAN. ) SOLID_ANGLE_UNIT ( ) );
#211 = CARTESIAN_POINT ( 'NONE',  ( 10.66058909122402600, 860.4788011072248500, 0.0000000000000000000 ) ) ;
#212 = DIRECTION ( 'NONE',  ( 0.0000000000000000000, 0.0000000000000000000, -1.000000000000000000 ) ) ;
#213 = DIRECTION ( 'NONE',  ( -0.0000000000000000000, -0.0000000000000000000, -1.000000000000000000 ) ) ;
#214 = CARTESIAN_POINT ( 'NONE',  ( 25.00000000000000000, 840.0000000000000000, 0.0000000000000000000 ) ) ;
#215 = CARTESIAN_POINT ( 'NONE',  ( 0.0000000000000000000, 0.0000000000000000000, 0.0000000000000000000 ) ) ;
#216 = DIRECTION ( 'NONE',  ( -1.000000000000000000, 0.0000000000000000000, 0.0000000000000000000 ) ) ;
#217 = DIRECTION ( 'NONE',  ( -0.0000000000000000000, -1.000000000000000000, -0.0000000000000000000 ) ) ;
#218 = FILL_AREA_STYLE_COLOUR ( '', #133 ) ;
#219 = FILL_AREA_STYLE ('',( #218 ) ) ;
#220 = SURFACE_SIDE_STYLE ('',( #131 ) ) ;
#221 = SURFACE_STYLE_USAGE ( .BOTH. , #220 ) ;
#222 =( LENGTH_UNIT ( ) NAMED_UNIT ( * ) SI_UNIT ( .MILLI., .METRE. ) );
#223 =( NAMED_UNIT ( * ) PLANE_ANGLE_UNIT ( ) SI_UNIT ( $, .RADIAN. ) );
#224 =( NAMED_UNIT ( * ) SI_UNIT ( $, .STERADIAN. ) SOLID_ANGLE_UNIT ( ) );
#225 = CARTESIAN_POINT ( 'NONE',  ( 0.0000000000000000000, 840.0000000000000000, 0.0000000000000000000 ) ) ;
#226 = PLANE ( 'NONE',  #12 ) ;
#227 = CARTESIAN_POINT ( 'NONE',  ( 108.9588344059035200, 929.3079734693496900, 0.0000000000000000000 ) ) ;
#228 = PLANE ( 'NONE',  #5 ) ;
#229 = DIRECTION ( 'NONE',  ( 0.8191520442889956800, 0.5735764363510405000, -0.0000000000000000000 ) ) ;
#230 = DIRECTION ( 'NONE',  ( 0.0000000000000000000, 0.0000000000000000000, 1.000000000000000000 ) ) ;
#231 = DIRECTION ( 'NONE',  ( 0.0000000000000000000, 1.000000000000000000, 0.0000000000000000000 ) ) ;
#232 = DIRECTION ( 'NONE',  ( 0.0000000000000000000, -0.0000000000000000000, 1.000000000000000000 ) ) ;
#233 = CARTESIAN_POINT ( 'NONE',  ( 0.0000000000000000000, 840.0000000000000000, 0.0000000000000000000 ) ) ;
#234 = CARTESIAN_POINT ( 'NONE',  ( 0.0000000000000000000, 840.0000000000000000, -5.000000000000000000 ) ) ;
#235 = DIRECTION ( 'NONE',  ( 0.0000000000000000000, 1.000000000000000000, 0.0000000000000000000 ) ) ;
#236 = DIRECTION ( 'NONE',  ( 0.0000000000000000000, 0.0000000000000000000, 1.000000000000000000 ) ) ;
#237 = CARTESIAN_POINT ( 'NONE',  ( 10.66058909122402600, 860.4788011072248500, 0.0000000000000000000 ) ) ;
#238 = DIRECTION ( 'NONE',  ( 0.8191520442889956800, 0.5735764363510405000, 0.0000000000000000000 ) ) ;
#239 = DIRECTION ( 'NONE',  ( 0.0000000000000000000, 0.0000000000000000000, 1.000000000000000000 ) ) ;
#240 = CARTESIAN_POINT ( 'NONE',  ( 0.0000000000000000000, 840.0000000000000000, 0.0000000000000000000 ) ) ;
#241 = DIRECTION ( 'NONE',  ( -0.0000000000000000000, -1.000000000000000000, -0.0000000000000000000 ) ) ;
#242 = CARTESIAN_POINT ( 'NONE',  ( 25.00000000000000000, 840.0000000000000000, 6.123233995736766300E-016 ) ) ;
#243 = DIRECTION ( 'NONE',  ( -0.0000000000000000000, -0.0000000000000000000, -1.000000000000000000 ) ) ;
#244 = DIRECTION ( 'NONE',  ( -1.000000000000000000, 0.0000000000000000000, 0.0000000000000000000 ) ) ;
#245 = CARTESIAN_POINT ( 'NONE',  ( 0.0000000000000000000, 840.0000000000000000, 0.0000000000000000000 ) ) ;
#246 = DIRECTION ( 'NONE',  ( 0.0000000000000000000, 1.000000000000000000, 0.0000000000000000000 ) ) ;
#247 = DIRECTION ( 'NONE',  ( 0.0000000000000000000, 0.0000000000000000000, 1.000000000000000000 ) ) ;
#248 = DIRECTION ( 'NONE',  ( 0.0000000000000000000, 1.000000000000000000, 0.0000000000000000000 ) ) ;
#249 = DIRECTION ( 'NONE',  ( 0.0000000000000000000, 0.0000000000000000000, 1.000000000000000000 ) ) ;
#250 = CARTESIAN_POINT ( 'NONE',  ( 0.0000000000000000000, 0.0000000000000000000, 0.0000000000000000000 ) ) ;
#251 = CARTESIAN_POINT ( 'NONE',  ( 6.123233995736766300E-016, 840.0000000000000000, 5.000000000000000000 ) ) ;
#252 = DIRECTION ( 'NONE',  ( -0.0000000000000000000, -1.000000000000000000, -0.0000000000000000000 ) ) ;
#253 = CARTESIAN_POINT ( 'NONE',  ( 25.00000000000000000, 840.0000000000000000, 0.0000000000000000000 ) ) ;
#254 = CARTESIAN_POINT ( 'NONE',  ( 108.9588344059035200, 929.3079734693496900, 0.0000000000000000000 ) ) ;
#255 = DIRECTION ( 'NONE',  ( -0.0000000000000000000, -0.0000000000000000000, -1.000000000000000000 ) ) ;
#256 = DIRECTION ( 'NONE',  ( -1.000000000000000000, 0.0000000000000000000, 0.0000000000000000000 ) ) ;
#257 = DIRECTION ( 'NONE',  ( 0.0000000000000000000, 1.000000000000000000, 0.0000000000000000000 ) ) ;
#258 = DIRECTION ( 'NONE',  ( 0.0000000000000000000, 0.0000000000000000000, 1.000000000000000000 ) ) ;
#259 = DIRECTION ( 'NONE',  ( 0.8191520442889956800, 0.5735764363510405000, 0.0000000000000000000 ) ) ;
#260 = DIRECTION ( 'NONE',  ( 0.0000000000000000000, 0.0000000000000000000, 1.000000000000000000 ) ) ;
#261 = CARTESIAN_POINT ( 'NONE',  ( 0.0000000000000000000, 840.0000000000000000, 0.0000000000000000000 ) ) ;
#262 = DIRECTION ( 'NONE',  ( 0.0000000000000000000, 1.000000000000000000, 0.0000000000000000000 ) ) ;
#263 = DIRECTION ( 'NONE',  ( 0.0000000000000000000, 0.0000000000000000000, 1.000000000000000000 ) ) ;
#264 = CARTESIAN_POINT ( 'NONE',  ( 108.9588344059035200, 929.3079734693496900, 0.0000000000000000000 ) ) ;
#265 = CARTESIAN_POINT ( 'NONE',  ( 13.52847127297922800, 856.3830408857799100, 6.123233995736766300E-016 ) ) ;
#266 = DIRECTION ( 'NONE',  ( 0.8191520442889959100, 0.5735764363510402800, 0.0000000000000000000 ) ) ;
#267 = CARTESIAN_POINT ( 'NONE',  ( 10.66058909122402600, 860.4788011072248500, 0.0000000000000000000 ) ) ;
#268 = CARTESIAN_POINT ( 'NONE',  ( 0.0000000000000000000, 0.0000000000000000000, 0.0000000000000000000 ) ) ;
#269 = DIRECTION ( 'NONE',  ( 0.8191520442889956800, 0.5735764363510405000, 0.0000000000000000000 ) ) ;
#270 = DIRECTION ( 'NONE',  ( 0.0000000000000000000, 0.0000000000000000000, 1.000000000000000000 ) ) ;
#271 = CARTESIAN_POINT ( 'NONE',  ( 7.792706909468824600, 864.5745613286698000, 0.0000000000000000000 ) ) ;
#272 = DIRECTION ( 'NONE',  ( 0.8191520442889959100, 0.5735764363510402800, 0.0000000000000000000 ) ) ;
#273 = CARTESIAN_POINT ( 'NONE',  ( 6.123233995736766300E-016, 840.0000000000000000, 5.000000000000000000 ) ) ;
#274 = DIRECTION ( 'NONE',  ( 0.8191520442889956800, 0.5735764363510405000, 0.0000000000000000000 ) ) ;
#275 = DIRECTION ( 'NONE',  ( 0.0000000000000000000, 0.0000000000000000000, 1.000000000000000000 ) ) ;
#276 = CARTESIAN_POINT ( 'NONE',  ( 13.52847127297922800, 856.3830408857799100, 6.123233995736766300E-016 ) ) ;
#277 = CARTESIAN_POINT ( 'NONE',  ( 106.0909522241483200, 933.4037336907946400, 0.0000000000000000000 ) ) ;
#278 = DIRECTION ( 'NONE',  ( 0.0000000000000000000, 1.000000000000000000, 0.0000000000000000000 ) ) ;
#279 = DIRECTION ( 'NONE',  ( 0.0000000000000000000, 0.0000000000000000000, 1.000000000000000000 ) ) ;
#280 = CARTESIAN_POINT ( 'NONE',  ( 5.000000000000000000, 840.0000000000000000, 6.123233995736765300E-016 ) ) ;
#281 = CARTESIAN_POINT ( 'NONE',  ( 0.0000000000000000000, 0.0000000000000000000, -5.000000000000000000 ) ) ;
#282 = CARTESIAN_POINT ( 'NONE',  ( 0.0000000000000000000, 840.0000000000000000, -5.000000000000000000 ) ) ;
#283 = CARTESIAN_POINT ( 'NONE',  ( -5.000000000000000900, 840.0000000000000000, 0.0000000000000000000 ) ) ;
#284 = CARTESIAN_POINT ( 'NONE',  ( 111.8267165876587200, 925.2122132479047400, 6.123233995736766300E-016 ) ) ;
#285 = CARTESIAN_POINT ( 'NONE',  ( 7.792706909468824600, 864.5745613286698000, 0.0000000000000000000 ) ) ;
#286 = CARTESIAN_POINT ( 'NONE',  ( 6.123233995736766300E-016, 0.0000000000000000000, 5.000000000000000000 ) ) ;
#287 = FILL_AREA_STYLE_COLOUR ( '', #154 ) ;
#288 = FILL_AREA_STYLE ('',( #287 ) ) ;
#289 = SURFACE_SIDE_STYLE ('',( #158 ) ) ;
#290 = SURFACE_STYLE_USAGE ( .BOTH. , #289 ) ;
#291 =( LENGTH_UNIT ( ) NAMED_UNIT ( * ) SI_UNIT ( .MILLI., .METRE. ) );
#292 =( NAMED_UNIT ( * ) PLANE_ANGLE_UNIT ( ) SI_UNIT ( $, .RADIAN. ) );
#293 =( NAMED_UNIT ( * ) SI_UNIT ( $, .STERADIAN. ) SOLID_ANGLE_UNIT ( ) );
#294 =( LENGTH_UNIT ( ) NAMED_UNIT ( * ) SI_UNIT ( .MILLI., .METRE. ) );
#295 =( NAMED_UNIT ( * ) PLANE_ANGLE_UNIT ( ) SI_UNIT ( $, .RADIAN. ) );
#296 =( NAMED_UNIT ( * ) SI_UNIT ( $, .STERADIAN. ) SOLID_ANGLE_UNIT ( ) );
#297 = FILL_AREA_STYLE_COLOUR ( '', #163 ) ;
#298 = FILL_AREA_STYLE ('',( #297 ) ) ;
#299 = SURFACE_SIDE_STYLE ('',( #164 ) ) ;
#300 = SURFACE_STYLE_USAGE ( .BOTH. , #299 ) ;
#301 =( LENGTH_UNIT ( ) NAMED_UNIT ( * ) SI_UNIT ( .MILLI., .METRE. ) );
#302 =( NAMED_UNIT ( * ) PLANE_ANGLE_UNIT ( ) SI_UNIT ( $, .RADIAN. ) );
#303 =( NAMED_UNIT ( * ) SI_UNIT ( $, .STERADIAN. ) SOLID_ANGLE_UNIT ( ) );
#304 = CARTESIAN_POINT ( 'NONE',  ( 0.0000000000000000000, 0.0000000000000000000, 0.0000000000000000000 ) ) ;
#305 = DIRECTION ( 'NONE',  ( 0.0000000000000000000, 0.0000000000000000000, 1.000000000000000000 ) ) ;
#306 = DIRECTION ( 'NONE',  ( 1.000000000000000000, 0.0000000000000000000, 0.0000000000000000000 ) ) ;
#307 = APPLICATION_CONTEXT ( 'automotive_design' ) ;
#308 = APPLICATION_PROTOCOL_DEFINITION ( 'draft international standard', 'automotive_design', 1998, #307 ) ;
#309 = PRODUCT_CONTEXT ( 'NONE', #307, 'mechanical' ) ;
#310 = APPLICATION_CONTEXT ( 'automotive_design' ) ;
#311 = APPLICATION_PROTOCOL_DEFINITION ( 'draft international standard', 'automotive_design', 1998, #310 ) ;
#312 = UNCERTAINTY_MEASURE_WITH_UNIT (LENGTH_MEASURE( 1.000000000000000100E-005 ), #291, 'distance_accuracy_value', 'NONE');
#313 = UNCERTAINTY_MEASURE_WITH_UNIT (LENGTH_MEASURE( 1.000000000000000100E-005 ), #188, 'distance_accuracy_value', 'NONE');
#314 = UNCERTAINTY_MEASURE_WITH_UNIT (LENGTH_MEASURE( 1.000000000000000100E-005 ), #222, 'distance_accuracy_value', 'NONE');
#315 = UNCERTAINTY_MEASURE_WITH_UNIT (LENGTH_MEASURE( 1.000000000000000100E-005 ), #208, 'distance_accuracy_value', 'NONE');
#316 = MANIFOLD_SOLID_BREP ( 'Balayage1', #21 ) ;
#317 = UNCERTAINTY_MEASURE_WITH_UNIT (LENGTH_MEASURE( 1.000000000000000100E-005 ), #294, 'distance_accuracy_value', 'NONE');
#318 = UNCERTAINTY_MEASURE_WITH_UNIT (LENGTH_MEASURE( 1.000000000000000100E-005 ), #198, 'distance_accuracy_value', 'NONE');
#319 = ADVANCED_BREP_SHAPE_REPRESENTATION ( 'Barre gouvernail', ( #316, #1 ), #162 ) ;
#320 = UNCERTAINTY_MEASURE_WITH_UNIT (LENGTH_MEASURE( 1.000000000000000100E-005 ), #301, 'distance_accuracy_value', 'NONE');
#321 = PRODUCT_DEFINITION_CONTEXT ( 'detailed design', #310, 'design' ) ;
#322 = PRODUCT_DEFINITION_SHAPE ( 'NONE', 'NONE',  #6 ) ;
ENDSEC;
END-ISO-10303-21;
