ISO-10303-21;
HEADER;
FILE_DESCRIPTION(('CATIA V5 STEP Exchange'),'2;1');

FILE_NAME('C:\\Users\\acer\\Desktop\\V5-Kit\\FAB\\006-LAMELLE RESSORT.stp','2020-01-02T18:30:58+00:00',('none'),('none'),'CATIA Version 5 Release 11 (IN-9)','CATIA V5 STEP AP203',' none');

FILE_SCHEMA(('CONFIG_CONTROL_DESIGN'));

ENDSEC;
DATA;
#5=PRODUCT('Lamelle-IBN-C','','IBN-C\S\\S\
t:0.5, l=14mm, L=65mm\S\\S\
',(#2)) ;
#1=APPLICATION_CONTEXT('configuration controlled 3D design of mechanical parts and assemblies') ;
#14=PRODUCT_DEFINITION(' ',' ',#6,#3) ;
#16=SECURITY_CLASSIFICATION(' ',' ',#15) ;
#15=SECURITY_CLASSIFICATION_LEVEL('unclassified') ;
#47=CARTESIAN_POINT(' ',(0.,0.,0.)) ;
#51=CARTESIAN_POINT('Axis2P3D Location',(22.,0.,0.)) ;
#56=CARTESIAN_POINT('Line Origine',(24.75,-3.11602414878E-015,0.)) ;
#60=CARTESIAN_POINT('Cartesian Point',(24.75,0.,0.25)) ;
#62=CARTESIAN_POINT('Cartesian Point',(24.75,0.,-0.25)) ;
#65=CARTESIAN_POINT('Axis2P3D Location',(22.,0.,-0.25)) ;
#69=CARTESIAN_POINT('Cartesian Point',(19.25,1.55801207439E-015,-0.25)) ;
#72=CARTESIAN_POINT('Line Origine',(19.25,1.55801207439E-015,0.)) ;
#76=CARTESIAN_POINT('Cartesian Point',(19.25,1.55801207439E-015,0.25)) ;
#79=CARTESIAN_POINT('Axis2P3D Location',(22.,0.,0.25)) ;
#91=CARTESIAN_POINT('Axis2P3D Location',(22.,0.,-0.25)) ;
#96=CARTESIAN_POINT('Axis2P3D Location',(22.,0.,0.25)) ;
#108=CARTESIAN_POINT('Axis2P3D Location',(7.,0.,0.)) ;
#113=CARTESIAN_POINT('Line Origine',(9.75,-3.11602414878E-015,0.)) ;
#117=CARTESIAN_POINT('Cartesian Point',(9.75,0.,0.25)) ;
#119=CARTESIAN_POINT('Cartesian Point',(9.75,0.,-0.25)) ;
#122=CARTESIAN_POINT('Axis2P3D Location',(7.,0.,-0.25)) ;
#126=CARTESIAN_POINT('Cartesian Point',(4.25,1.55801207439E-015,-0.25)) ;
#129=CARTESIAN_POINT('Line Origine',(4.25,1.55801207439E-015,0.)) ;
#133=CARTESIAN_POINT('Cartesian Point',(4.25,1.55801207439E-015,0.25)) ;
#136=CARTESIAN_POINT('Axis2P3D Location',(7.,0.,0.25)) ;
#148=CARTESIAN_POINT('Axis2P3D Location',(7.,0.,-0.25)) ;
#153=CARTESIAN_POINT('Axis2P3D Location',(7.,0.,0.25)) ;
#165=CARTESIAN_POINT('Axis2P3D Location',(65.,-6.5,-0.35)) ;
#170=CARTESIAN_POINT('Line Origine',(64.5,-7.,0.25)) ;
#174=CARTESIAN_POINT('Cartesian Point',(65.,-6.5,0.25)) ;
#176=CARTESIAN_POINT('Cartesian Point',(64.,-7.5,0.25)) ;
#179=CARTESIAN_POINT('Line Origine',(64.,-7.5,0.)) ;
#183=CARTESIAN_POINT('Cartesian Point',(64.,-7.5,-0.25)) ;
#186=CARTESIAN_POINT('Line Origine',(64.5,-7.,-0.25)) ;
#190=CARTESIAN_POINT('Cartesian Point',(65.,-6.5,-0.25)) ;
#193=CARTESIAN_POINT('Line Origine',(65.,-6.5,0.)) ;
#205=CARTESIAN_POINT('Axis2P3D Location',(65.,-7.5,0.)) ;
#210=CARTESIAN_POINT('Line Origine',(65.,-2.6645352591E-015,0.25)) ;
#214=CARTESIAN_POINT('Cartesian Point',(65.,6.5,0.25)) ;
#217=CARTESIAN_POINT('Line Origine',(65.,-2.6645352591E-015,-0.25)) ;
#221=CARTESIAN_POINT('Cartesian Point',(65.,6.5,-0.25)) ;
#224=CARTESIAN_POINT('Line Origine',(65.,6.5,0.)) ;
#236=CARTESIAN_POINT('Axis2P3D Location',(65.,6.5,0.35)) ;
#241=CARTESIAN_POINT('Line Origine',(64.5,7.,0.25)) ;
#245=CARTESIAN_POINT('Cartesian Point',(64.,7.5,0.25)) ;
#248=CARTESIAN_POINT('Line Origine',(64.5,7.,-0.25)) ;
#252=CARTESIAN_POINT('Cartesian Point',(64.,7.5,-0.25)) ;
#255=CARTESIAN_POINT('Line Origine',(64.,7.5,0.)) ;
#267=CARTESIAN_POINT('Axis2P3D Location',(65.,-7.5,0.)) ;
#272=CARTESIAN_POINT('Line Origine',(1.,-7.5,0.)) ;
#276=CARTESIAN_POINT('Cartesian Point',(1.,-7.5,-0.25)) ;
#278=CARTESIAN_POINT('Cartesian Point',(1.,-7.5,0.25)) ;
#281=CARTESIAN_POINT('Line Origine',(32.5,-7.5,-0.25)) ;
#286=CARTESIAN_POINT('Line Origine',(32.5,-7.5,0.25)) ;
#298=CARTESIAN_POINT('Axis2P3D Location',(-6.10622663544E-016,-6.5,0.35)) ;
#303=CARTESIAN_POINT('Line Origine',(0.5,-7.,0.25)) ;
#307=CARTESIAN_POINT('Cartesian Point',(-6.10622663544E-016,-6.5,0.25)) ;
#310=CARTESIAN_POINT('Line Origine',(-6.10622663544E-016,-6.5,0.)) ;
#314=CARTESIAN_POINT('Cartesian Point',(-6.10622663544E-016,-6.5,-0.25)) ;
#317=CARTESIAN_POINT('Line Origine',(0.5,-7.,-0.25)) ;
#329=CARTESIAN_POINT('Axis2P3D Location',(-6.10622663544E-016,7.5,0.)) ;
#334=CARTESIAN_POINT('Line Origine',(1.,7.5,0.)) ;
#338=CARTESIAN_POINT('Cartesian Point',(1.,7.5,-0.25)) ;
#340=CARTESIAN_POINT('Cartesian Point',(1.,7.5,0.25)) ;
#343=CARTESIAN_POINT('Line Origine',(32.5,7.5,0.25)) ;
#348=CARTESIAN_POINT('Line Origine',(32.5,7.5,-0.25)) ;
#360=CARTESIAN_POINT('Axis2P3D Location',(-6.10622663544E-016,7.5,0.)) ;
#365=CARTESIAN_POINT('Line Origine',(-6.10622663544E-016,-2.6645352591E-015,-0.25)) ;
#369=CARTESIAN_POINT('Cartesian Point',(-6.10622663544E-016,6.5,-0.25)) ;
#372=CARTESIAN_POINT('Line Origine',(-6.10622663544E-016,-2.6645352591E-015,0.25)) ;
#376=CARTESIAN_POINT('Cartesian Point',(-6.10622663544E-016,6.5,0.25)) ;
#379=CARTESIAN_POINT('Line Origine',(-6.10622663544E-016,6.5,0.)) ;
#391=CARTESIAN_POINT('Axis2P3D Location',(0.,0.,-0.25)) ;
#396=CARTESIAN_POINT('Line Origine',(0.5,7.,-0.25)) ;
#420=CARTESIAN_POINT('Axis2P3D Location',(0.,0.,0.25)) ;
#425=CARTESIAN_POINT('Line Origine',(0.5,7.,0.25)) ;
#449=CARTESIAN_POINT('Axis2P3D Location',(-6.10622663544E-016,6.5,-0.35)) ;
#52=DIRECTION('Axis2P3D Direction',(0.,0.,1.)) ;
#53=DIRECTION('Axis2P3D XDirection',(1.,0.,0.)) ;
#57=DIRECTION('Vector Direction',(0.,0.,1.)) ;
#66=DIRECTION('Axis2P3D Direction',(0.,0.,1.)) ;
#73=DIRECTION('Vector Direction',(0.,0.,1.)) ;
#80=DIRECTION('Axis2P3D Direction',(0.,0.,1.)) ;
#92=DIRECTION('Axis2P3D Direction',(0.,0.,1.)) ;
#97=DIRECTION('Axis2P3D Direction',(0.,0.,1.)) ;
#109=DIRECTION('Axis2P3D Direction',(0.,0.,1.)) ;
#110=DIRECTION('Axis2P3D XDirection',(1.,0.,0.)) ;
#114=DIRECTION('Vector Direction',(0.,0.,1.)) ;
#123=DIRECTION('Axis2P3D Direction',(0.,0.,1.)) ;
#130=DIRECTION('Vector Direction',(0.,0.,1.)) ;
#137=DIRECTION('Axis2P3D Direction',(0.,0.,1.)) ;
#149=DIRECTION('Axis2P3D Direction',(0.,0.,1.)) ;
#154=DIRECTION('Axis2P3D Direction',(0.,0.,1.)) ;
#166=DIRECTION('Axis2P3D Direction',(0.707106781187,-0.707106781187,0.)) ;
#167=DIRECTION('Axis2P3D XDirection',(0.,0.,1.)) ;
#171=DIRECTION('Vector Direction',(-0.707106781187,-0.707106781187,0.)) ;
#180=DIRECTION('Vector Direction',(0.,0.,1.)) ;
#187=DIRECTION('Vector Direction',(-0.707106781187,-0.707106781187,0.)) ;
#194=DIRECTION('Vector Direction',(0.,0.,1.)) ;
#206=DIRECTION('Axis2P3D Direction',(1.,0.,0.)) ;
#207=DIRECTION('Axis2P3D XDirection',(0.,1.,0.)) ;
#211=DIRECTION('Vector Direction',(0.,1.,0.)) ;
#218=DIRECTION('Vector Direction',(0.,1.,0.)) ;
#225=DIRECTION('Vector Direction',(0.,0.,-1.)) ;
#237=DIRECTION('Axis2P3D Direction',(0.707106781187,0.707106781187,0.)) ;
#238=DIRECTION('Axis2P3D XDirection',(0.,0.,-1.)) ;
#242=DIRECTION('Vector Direction',(-0.707106781187,0.707106781187,0.)) ;
#249=DIRECTION('Vector Direction',(-0.707106781187,0.707106781187,0.)) ;
#256=DIRECTION('Vector Direction',(0.,0.,-1.)) ;
#268=DIRECTION('Axis2P3D Direction',(0.,1.,-0.)) ;
#269=DIRECTION('Axis2P3D XDirection',(-1.,0.,0.)) ;
#273=DIRECTION('Vector Direction',(0.,0.,-1.)) ;
#282=DIRECTION('Vector Direction',(-1.,0.,0.)) ;
#287=DIRECTION('Vector Direction',(-1.,0.,0.)) ;
#299=DIRECTION('Axis2P3D Direction',(-0.707106781187,-0.707106781187,-0.)) ;
#300=DIRECTION('Axis2P3D XDirection',(0.,0.,-1.)) ;
#304=DIRECTION('Vector Direction',(0.707106781187,-0.707106781187,0.)) ;
#311=DIRECTION('Vector Direction',(0.,0.,-1.)) ;
#318=DIRECTION('Vector Direction',(0.707106781187,-0.707106781187,0.)) ;
#330=DIRECTION('Axis2P3D Direction',(0.,-1.,0.)) ;
#331=DIRECTION('Axis2P3D XDirection',(1.,0.,0.)) ;
#335=DIRECTION('Vector Direction',(0.,0.,1.)) ;
#344=DIRECTION('Vector Direction',(1.,0.,0.)) ;
#349=DIRECTION('Vector Direction',(1.,0.,0.)) ;
#361=DIRECTION('Axis2P3D Direction',(-1.,0.,0.)) ;
#362=DIRECTION('Axis2P3D XDirection',(0.,-1.,0.)) ;
#366=DIRECTION('Vector Direction',(0.,-1.,0.)) ;
#373=DIRECTION('Vector Direction',(0.,-1.,0.)) ;
#380=DIRECTION('Vector Direction',(0.,0.,1.)) ;
#392=DIRECTION('Axis2P3D Direction',(0.,0.,1.)) ;
#393=DIRECTION('Axis2P3D XDirection',(1.,0.,0.)) ;
#397=DIRECTION('Vector Direction',(0.707106781187,0.707106781187,0.)) ;
#421=DIRECTION('Axis2P3D Direction',(0.,0.,1.)) ;
#422=DIRECTION('Axis2P3D XDirection',(1.,0.,0.)) ;
#426=DIRECTION('Vector Direction',(0.707106781187,0.707106781187,0.)) ;
#450=DIRECTION('Axis2P3D Direction',(-0.707106781187,0.707106781187,0.)) ;
#451=DIRECTION('Axis2P3D XDirection',(0.,0.,1.)) ;
#48=AXIS2_PLACEMENT_3D(' ',#47,$,$) ;
#54=AXIS2_PLACEMENT_3D('Cylinder Axis2P3D',#51,#52,#53) ;
#67=AXIS2_PLACEMENT_3D('Circle Axis2P3D',#65,#66,$) ;
#81=AXIS2_PLACEMENT_3D('Circle Axis2P3D',#79,#80,$) ;
#93=AXIS2_PLACEMENT_3D('Circle Axis2P3D',#91,#92,$) ;
#98=AXIS2_PLACEMENT_3D('Circle Axis2P3D',#96,#97,$) ;
#111=AXIS2_PLACEMENT_3D('Cylinder Axis2P3D',#108,#109,#110) ;
#124=AXIS2_PLACEMENT_3D('Circle Axis2P3D',#122,#123,$) ;
#138=AXIS2_PLACEMENT_3D('Circle Axis2P3D',#136,#137,$) ;
#150=AXIS2_PLACEMENT_3D('Circle Axis2P3D',#148,#149,$) ;
#155=AXIS2_PLACEMENT_3D('Circle Axis2P3D',#153,#154,$) ;
#168=AXIS2_PLACEMENT_3D('Plane Axis2P3D',#165,#166,#167) ;
#208=AXIS2_PLACEMENT_3D('Plane Axis2P3D',#205,#206,#207) ;
#239=AXIS2_PLACEMENT_3D('Plane Axis2P3D',#236,#237,#238) ;
#270=AXIS2_PLACEMENT_3D('Plane Axis2P3D',#267,#268,#269) ;
#301=AXIS2_PLACEMENT_3D('Plane Axis2P3D',#298,#299,#300) ;
#332=AXIS2_PLACEMENT_3D('Plane Axis2P3D',#329,#330,#331) ;
#363=AXIS2_PLACEMENT_3D('Plane Axis2P3D',#360,#361,#362) ;
#394=AXIS2_PLACEMENT_3D('Plane Axis2P3D',#391,#392,#393) ;
#423=AXIS2_PLACEMENT_3D('Plane Axis2P3D',#420,#421,#422) ;
#452=AXIS2_PLACEMENT_3D('Plane Axis2P3D',#449,#450,#451) ;
#40=PRODUCT_DEFINITION_SHAPE(' ',' ',#14) ;
#31=APPROVAL_PERSON_ORGANIZATION(#25,#21,#19) ;
#25=PERSON_AND_ORGANIZATION(#22,#23) ;
#22=PERSON(' ',' ',' ',$,$,$) ;
#23=ORGANIZATION(' ',' ',' ') ;
#21=APPROVAL(#20,' ') ;
#20=APPROVAL_STATUS('not_yet_approved') ;
#19=APPROVAL_ROLE('APPROVER') ;
#13=DATE_AND_TIME(#11,#12) ;
#12=LOCAL_TIME(19,30,58.,#10) ;
#10=COORDINATED_UNIVERSAL_TIME_OFFSET(0,0,.AHEAD.) ;
#85=ORIENTED_EDGE('Oriented Edge',*,*,#64,.T.) ;
#86=ORIENTED_EDGE('Oriented Edge',*,*,#71,.F.) ;
#87=ORIENTED_EDGE('Oriented Edge',*,*,#78,.F.) ;
#88=ORIENTED_EDGE('Oriented Edge',*,*,#83,.T.) ;
#102=ORIENTED_EDGE('Oriented Edge',*,*,#78,.T.) ;
#103=ORIENTED_EDGE('Oriented Edge',*,*,#95,.F.) ;
#104=ORIENTED_EDGE('Oriented Edge',*,*,#64,.F.) ;
#105=ORIENTED_EDGE('Oriented Edge',*,*,#100,.T.) ;
#142=ORIENTED_EDGE('Oriented Edge',*,*,#121,.T.) ;
#143=ORIENTED_EDGE('Oriented Edge',*,*,#128,.F.) ;
#144=ORIENTED_EDGE('Oriented Edge',*,*,#135,.F.) ;
#145=ORIENTED_EDGE('Oriented Edge',*,*,#140,.T.) ;
#159=ORIENTED_EDGE('Oriented Edge',*,*,#135,.T.) ;
#160=ORIENTED_EDGE('Oriented Edge',*,*,#152,.F.) ;
#161=ORIENTED_EDGE('Oriented Edge',*,*,#121,.F.) ;
#162=ORIENTED_EDGE('Oriented Edge',*,*,#157,.T.) ;
#199=ORIENTED_EDGE('Oriented Edge',*,*,#178,.T.) ;
#200=ORIENTED_EDGE('Oriented Edge',*,*,#185,.F.) ;
#201=ORIENTED_EDGE('Oriented Edge',*,*,#192,.T.) ;
#202=ORIENTED_EDGE('Oriented Edge',*,*,#197,.T.) ;
#230=ORIENTED_EDGE('Oriented Edge',*,*,#216,.F.) ;
#231=ORIENTED_EDGE('Oriented Edge',*,*,#197,.F.) ;
#232=ORIENTED_EDGE('Oriented Edge',*,*,#223,.T.) ;
#233=ORIENTED_EDGE('Oriented Edge',*,*,#228,.T.) ;
#261=ORIENTED_EDGE('Oriented Edge',*,*,#247,.T.) ;
#262=ORIENTED_EDGE('Oriented Edge',*,*,#228,.F.) ;
#263=ORIENTED_EDGE('Oriented Edge',*,*,#254,.T.) ;
#264=ORIENTED_EDGE('Oriented Edge',*,*,#259,.T.) ;
#292=ORIENTED_EDGE('Oriented Edge',*,*,#280,.F.) ;
#293=ORIENTED_EDGE('Oriented Edge',*,*,#285,.T.) ;
#294=ORIENTED_EDGE('Oriented Edge',*,*,#185,.T.) ;
#295=ORIENTED_EDGE('Oriented Edge',*,*,#290,.F.) ;
#323=ORIENTED_EDGE('Oriented Edge',*,*,#309,.T.) ;
#324=ORIENTED_EDGE('Oriented Edge',*,*,#316,.F.) ;
#325=ORIENTED_EDGE('Oriented Edge',*,*,#321,.T.) ;
#326=ORIENTED_EDGE('Oriented Edge',*,*,#280,.T.) ;
#354=ORIENTED_EDGE('Oriented Edge',*,*,#342,.T.) ;
#355=ORIENTED_EDGE('Oriented Edge',*,*,#347,.F.) ;
#356=ORIENTED_EDGE('Oriented Edge',*,*,#259,.F.) ;
#357=ORIENTED_EDGE('Oriented Edge',*,*,#352,.T.) ;
#385=ORIENTED_EDGE('Oriented Edge',*,*,#371,.T.) ;
#386=ORIENTED_EDGE('Oriented Edge',*,*,#316,.T.) ;
#387=ORIENTED_EDGE('Oriented Edge',*,*,#378,.F.) ;
#388=ORIENTED_EDGE('Oriented Edge',*,*,#383,.F.) ;
#402=ORIENTED_EDGE('Oriented Edge',*,*,#400,.F.) ;
#403=ORIENTED_EDGE('Oriented Edge',*,*,#352,.F.) ;
#404=ORIENTED_EDGE('Oriented Edge',*,*,#254,.F.) ;
#405=ORIENTED_EDGE('Oriented Edge',*,*,#223,.F.) ;
#406=ORIENTED_EDGE('Oriented Edge',*,*,#192,.F.) ;
#407=ORIENTED_EDGE('Oriented Edge',*,*,#285,.F.) ;
#408=ORIENTED_EDGE('Oriented Edge',*,*,#321,.F.) ;
#409=ORIENTED_EDGE('Oriented Edge',*,*,#371,.F.) ;
#412=ORIENTED_EDGE('Oriented Edge',*,*,#128,.T.) ;
#413=ORIENTED_EDGE('Oriented Edge',*,*,#152,.T.) ;
#416=ORIENTED_EDGE('Oriented Edge',*,*,#71,.T.) ;
#417=ORIENTED_EDGE('Oriented Edge',*,*,#95,.T.) ;
#431=ORIENTED_EDGE('Oriented Edge',*,*,#378,.T.) ;
#432=ORIENTED_EDGE('Oriented Edge',*,*,#309,.F.) ;
#433=ORIENTED_EDGE('Oriented Edge',*,*,#290,.T.) ;
#434=ORIENTED_EDGE('Oriented Edge',*,*,#178,.F.) ;
#435=ORIENTED_EDGE('Oriented Edge',*,*,#216,.T.) ;
#436=ORIENTED_EDGE('Oriented Edge',*,*,#247,.F.) ;
#437=ORIENTED_EDGE('Oriented Edge',*,*,#347,.T.) ;
#438=ORIENTED_EDGE('Oriented Edge',*,*,#429,.F.) ;
#441=ORIENTED_EDGE('Oriented Edge',*,*,#157,.F.) ;
#442=ORIENTED_EDGE('Oriented Edge',*,*,#140,.F.) ;
#445=ORIENTED_EDGE('Oriented Edge',*,*,#100,.F.) ;
#446=ORIENTED_EDGE('Oriented Edge',*,*,#83,.F.) ;
#455=ORIENTED_EDGE('Oriented Edge',*,*,#429,.T.) ;
#456=ORIENTED_EDGE('Oriented Edge',*,*,#342,.F.) ;
#457=ORIENTED_EDGE('Oriented Edge',*,*,#400,.T.) ;
#458=ORIENTED_EDGE('Oriented Edge',*,*,#383,.T.) ;
#414=FACE_BOUND('Face Bound',#411,.T.) ;
#418=FACE_BOUND('Face Bound',#415,.T.) ;
#443=FACE_BOUND('Face Bound',#440,.T.) ;
#447=FACE_BOUND('Face Bound',#444,.T.) ;
#461=CLOSED_SHELL('Closed Shell',(#90,#107,#147,#164,#204,#235,#266,#297,#328,#359,#390,#419,#448,#460)) ;
#58=VECTOR('Line Direction',#57,1.) ;
#74=VECTOR('Line Direction',#73,1.) ;
#115=VECTOR('Line Direction',#114,1.) ;
#131=VECTOR('Line Direction',#130,1.) ;
#172=VECTOR('Line Direction',#171,1.) ;
#181=VECTOR('Line Direction',#180,1.) ;
#188=VECTOR('Line Direction',#187,1.) ;
#195=VECTOR('Line Direction',#194,1.) ;
#212=VECTOR('Line Direction',#211,1.) ;
#219=VECTOR('Line Direction',#218,1.) ;
#226=VECTOR('Line Direction',#225,1.) ;
#243=VECTOR('Line Direction',#242,1.) ;
#250=VECTOR('Line Direction',#249,1.) ;
#257=VECTOR('Line Direction',#256,1.) ;
#274=VECTOR('Line Direction',#273,1.) ;
#283=VECTOR('Line Direction',#282,1.) ;
#288=VECTOR('Line Direction',#287,1.) ;
#305=VECTOR('Line Direction',#304,1.) ;
#312=VECTOR('Line Direction',#311,1.) ;
#319=VECTOR('Line Direction',#318,1.) ;
#336=VECTOR('Line Direction',#335,1.) ;
#345=VECTOR('Line Direction',#344,1.) ;
#350=VECTOR('Line Direction',#349,1.) ;
#367=VECTOR('Line Direction',#366,1.) ;
#374=VECTOR('Line Direction',#373,1.) ;
#381=VECTOR('Line Direction',#380,1.) ;
#398=VECTOR('Line Direction',#397,1.) ;
#427=VECTOR('Line Direction',#426,1.) ;
#463=ADVANCED_BREP_SHAPE_REPRESENTATION('NONE',(#462),#46) ;
#49=SHAPE_REPRESENTATION(' ',(#48),#46) ;
#90=ADVANCED_FACE('',(#89),#55,.F.) ;
#107=ADVANCED_FACE('',(#106),#55,.F.) ;
#147=ADVANCED_FACE('',(#146),#112,.F.) ;
#164=ADVANCED_FACE('',(#163),#112,.F.) ;
#204=ADVANCED_FACE('',(#203),#169,.T.) ;
#235=ADVANCED_FACE('',(#234),#209,.T.) ;
#266=ADVANCED_FACE('',(#265),#240,.T.) ;
#297=ADVANCED_FACE('',(#296),#271,.F.) ;
#328=ADVANCED_FACE('',(#327),#302,.T.) ;
#359=ADVANCED_FACE('',(#358),#333,.F.) ;
#390=ADVANCED_FACE('',(#389),#364,.T.) ;
#419=ADVANCED_FACE('',(#410,#414,#418),#395,.F.) ;
#448=ADVANCED_FACE('',(#439,#443,#447),#424,.T.) ;
#460=ADVANCED_FACE('',(#459),#453,.T.) ;
#4=APPLICATION_PROTOCOL_DEFINITION('international standard','config_control_design',1994,#1) ;
#32=APPROVAL_DATE_TIME(#13,#21) ;
#462=MANIFOLD_SOLID_BREP('Manifold Brep',#461) ;
#11=CALENDAR_DATE(2020,2,1) ;
#30=CC_DESIGN_APPROVAL(#21,(#16,#6,#14)) ;
#18=CC_DESIGN_DATE_AND_TIME_ASSIGNMENT(#13,#17,(#16)) ;
#29=CC_DESIGN_DATE_AND_TIME_ASSIGNMENT(#13,#28,(#14)) ;
#17=DATE_TIME_ROLE('classification_date') ;
#28=DATE_TIME_ROLE('creation_date') ;
#27=CC_DESIGN_PERSON_AND_ORGANIZATION_ASSIGNMENT(#25,#26,(#16)) ;
#33=CC_DESIGN_PERSON_AND_ORGANIZATION_ASSIGNMENT(#25,#34,(#6)) ;
#35=CC_DESIGN_PERSON_AND_ORGANIZATION_ASSIGNMENT(#25,#36,(#6,#14)) ;
#37=CC_DESIGN_PERSON_AND_ORGANIZATION_ASSIGNMENT(#25,#38,(#5)) ;
#26=PERSON_AND_ORGANIZATION_ROLE('classification_officer') ;
#34=PERSON_AND_ORGANIZATION_ROLE('design_supplier') ;
#36=PERSON_AND_ORGANIZATION_ROLE('creator') ;
#38=PERSON_AND_ORGANIZATION_ROLE('design_owner') ;
#39=CC_DESIGN_SECURITY_CLASSIFICATION(#16,(#6)) ;
#68=CIRCLE('generated circle',#67,2.75) ;
#82=CIRCLE('generated circle',#81,2.75) ;
#94=CIRCLE('generated circle',#93,2.75) ;
#99=CIRCLE('generated circle',#98,2.75) ;
#125=CIRCLE('generated circle',#124,2.75) ;
#139=CIRCLE('generated circle',#138,2.75) ;
#151=CIRCLE('generated circle',#150,2.75) ;
#156=CIRCLE('generated circle',#155,2.75) ;
#464=SHAPE_REPRESENTATION_RELATIONSHIP(' ',' ',#49,#463) ;
#55=CYLINDRICAL_SURFACE('generated cylinder',#54,2.75) ;
#112=CYLINDRICAL_SURFACE('generated cylinder',#111,2.75) ;
#3=DESIGN_CONTEXT(' ',#1,'design') ;
#64=EDGE_CURVE('',#61,#63,#59,.F.) ;
#71=EDGE_CURVE('',#70,#63,#68,.T.) ;
#78=EDGE_CURVE('',#77,#70,#75,.F.) ;
#83=EDGE_CURVE('',#77,#61,#82,.T.) ;
#95=EDGE_CURVE('',#63,#70,#94,.T.) ;
#100=EDGE_CURVE('',#61,#77,#99,.T.) ;
#121=EDGE_CURVE('',#118,#120,#116,.F.) ;
#128=EDGE_CURVE('',#127,#120,#125,.T.) ;
#135=EDGE_CURVE('',#134,#127,#132,.F.) ;
#140=EDGE_CURVE('',#134,#118,#139,.T.) ;
#152=EDGE_CURVE('',#120,#127,#151,.T.) ;
#157=EDGE_CURVE('',#118,#134,#156,.T.) ;
#178=EDGE_CURVE('',#175,#177,#173,.T.) ;
#185=EDGE_CURVE('',#184,#177,#182,.T.) ;
#192=EDGE_CURVE('',#184,#191,#189,.F.) ;
#197=EDGE_CURVE('',#191,#175,#196,.T.) ;
#216=EDGE_CURVE('',#175,#215,#213,.T.) ;
#223=EDGE_CURVE('',#191,#222,#220,.T.) ;
#228=EDGE_CURVE('',#222,#215,#227,.F.) ;
#247=EDGE_CURVE('',#246,#215,#244,.F.) ;
#254=EDGE_CURVE('',#222,#253,#251,.T.) ;
#259=EDGE_CURVE('',#253,#246,#258,.F.) ;
#280=EDGE_CURVE('',#277,#279,#275,.F.) ;
#285=EDGE_CURVE('',#277,#184,#284,.F.) ;
#290=EDGE_CURVE('',#279,#177,#289,.F.) ;
#309=EDGE_CURVE('',#279,#308,#306,.F.) ;
#316=EDGE_CURVE('',#315,#308,#313,.F.) ;
#321=EDGE_CURVE('',#315,#277,#320,.T.) ;
#342=EDGE_CURVE('',#339,#341,#337,.T.) ;
#347=EDGE_CURVE('',#246,#341,#346,.F.) ;
#352=EDGE_CURVE('',#253,#339,#351,.F.) ;
#371=EDGE_CURVE('',#370,#315,#368,.T.) ;
#378=EDGE_CURVE('',#377,#308,#375,.T.) ;
#383=EDGE_CURVE('',#370,#377,#382,.T.) ;
#400=EDGE_CURVE('',#339,#370,#399,.F.) ;
#429=EDGE_CURVE('',#377,#341,#428,.T.) ;
#84=EDGE_LOOP('Oriented Loop',(#85,#86,#87,#88)) ;
#101=EDGE_LOOP('Oriented Loop',(#102,#103,#104,#105)) ;
#141=EDGE_LOOP('Oriented Loop',(#142,#143,#144,#145)) ;
#158=EDGE_LOOP('Oriented Loop',(#159,#160,#161,#162)) ;
#198=EDGE_LOOP('Oriented Loop',(#199,#200,#201,#202)) ;
#229=EDGE_LOOP('Oriented Loop',(#230,#231,#232,#233)) ;
#260=EDGE_LOOP('Oriented Loop',(#261,#262,#263,#264)) ;
#291=EDGE_LOOP('Oriented Loop',(#292,#293,#294,#295)) ;
#322=EDGE_LOOP('Oriented Loop',(#323,#324,#325,#326)) ;
#353=EDGE_LOOP('Oriented Loop',(#354,#355,#356,#357)) ;
#384=EDGE_LOOP('Oriented Loop',(#385,#386,#387,#388)) ;
#401=EDGE_LOOP('Oriented Loop',(#402,#403,#404,#405,#406,#407,#408,#409)) ;
#411=EDGE_LOOP('Oriented Loop',(#412,#413)) ;
#415=EDGE_LOOP('Oriented Loop',(#416,#417)) ;
#430=EDGE_LOOP('Oriented Loop',(#431,#432,#433,#434,#435,#436,#437,#438)) ;
#440=EDGE_LOOP('Oriented Loop',(#441,#442)) ;
#444=EDGE_LOOP('Oriented Loop',(#445,#446)) ;
#454=EDGE_LOOP('Oriented Loop',(#455,#456,#457,#458)) ;
#89=FACE_OUTER_BOUND('Face Bound',#84,.T.) ;
#106=FACE_OUTER_BOUND('Face Bound',#101,.T.) ;
#146=FACE_OUTER_BOUND('Face Bound',#141,.T.) ;
#163=FACE_OUTER_BOUND('Face Bound',#158,.T.) ;
#203=FACE_OUTER_BOUND('Face Bound',#198,.T.) ;
#234=FACE_OUTER_BOUND('Face Bound',#229,.T.) ;
#265=FACE_OUTER_BOUND('Face Bound',#260,.T.) ;
#296=FACE_OUTER_BOUND('Face Bound',#291,.T.) ;
#327=FACE_OUTER_BOUND('Face Bound',#322,.T.) ;
#358=FACE_OUTER_BOUND('Face Bound',#353,.T.) ;
#389=FACE_OUTER_BOUND('Face Bound',#384,.T.) ;
#410=FACE_OUTER_BOUND('Face Bound',#401,.T.) ;
#439=FACE_OUTER_BOUND('Face Bound',#430,.T.) ;
#459=FACE_OUTER_BOUND('Face Bound',#454,.T.) ;
#45=UNCERTAINTY_MEASURE_WITH_UNIT(LENGTH_MEASURE(0.005),#41,'TOL_CRV','CONFUSED CURVE UNCERTAINTY') ;
#59=LINE('Line',#56,#58) ;
#75=LINE('Line',#72,#74) ;
#116=LINE('Line',#113,#115) ;
#132=LINE('Line',#129,#131) ;
#173=LINE('Line',#170,#172) ;
#182=LINE('Line',#179,#181) ;
#189=LINE('Line',#186,#188) ;
#196=LINE('Line',#193,#195) ;
#213=LINE('Line',#210,#212) ;
#220=LINE('Line',#217,#219) ;
#227=LINE('Line',#224,#226) ;
#244=LINE('Line',#241,#243) ;
#251=LINE('Line',#248,#250) ;
#258=LINE('Line',#255,#257) ;
#275=LINE('Line',#272,#274) ;
#284=LINE('Line',#281,#283) ;
#289=LINE('Line',#286,#288) ;
#306=LINE('Line',#303,#305) ;
#313=LINE('Line',#310,#312) ;
#320=LINE('Line',#317,#319) ;
#337=LINE('Line',#334,#336) ;
#346=LINE('Line',#343,#345) ;
#351=LINE('Line',#348,#350) ;
#368=LINE('Line',#365,#367) ;
#375=LINE('Line',#372,#374) ;
#382=LINE('Line',#379,#381) ;
#399=LINE('Line',#396,#398) ;
#428=LINE('Line',#425,#427) ;
#2=MECHANICAL_CONTEXT(' ',#1,'mechanical') ;
#24=PERSONAL_ADDRESS(' ',' ',' ',' ',' ',' ',' ',' ',' ',' ',' ',' ',(#22),' ') ;
#169=PLANE('Plane',#168) ;
#209=PLANE('Plane',#208) ;
#240=PLANE('Plane',#239) ;
#271=PLANE('Plane',#270) ;
#302=PLANE('Plane',#301) ;
#333=PLANE('Plane',#332) ;
#364=PLANE('Plane',#363) ;
#395=PLANE('Plane',#394) ;
#424=PLANE('Plane',#423) ;
#453=PLANE('Plane',#452) ;
#43=PLANE_ANGLE_MEASURE_WITH_UNIT(PLANE_ANGLE_MEASURE(0.0174532925199),#42) ;
#7=PRODUCT_CATEGORY('part',$) ;
#9=PRODUCT_CATEGORY_RELATIONSHIP(' ',' ',#7,#8) ;
#6=PRODUCT_DEFINITION_FORMATION_WITH_SPECIFIED_SOURCE('',' ',#5,.NOT_KNOWN.) ;
#8=PRODUCT_RELATED_PRODUCT_CATEGORY('detail',$,(#5)) ;
#50=SHAPE_DEFINITION_REPRESENTATION(#40,#49) ;
#61=VERTEX_POINT('Vertex Point',#60) ;
#63=VERTEX_POINT('Vertex Point',#62) ;
#70=VERTEX_POINT('Vertex Point',#69) ;
#77=VERTEX_POINT('Vertex Point',#76) ;
#118=VERTEX_POINT('Vertex Point',#117) ;
#120=VERTEX_POINT('Vertex Point',#119) ;
#127=VERTEX_POINT('Vertex Point',#126) ;
#134=VERTEX_POINT('Vertex Point',#133) ;
#175=VERTEX_POINT('Vertex Point',#174) ;
#177=VERTEX_POINT('Vertex Point',#176) ;
#184=VERTEX_POINT('Vertex Point',#183) ;
#191=VERTEX_POINT('Vertex Point',#190) ;
#215=VERTEX_POINT('Vertex Point',#214) ;
#222=VERTEX_POINT('Vertex Point',#221) ;
#246=VERTEX_POINT('Vertex Point',#245) ;
#253=VERTEX_POINT('Vertex Point',#252) ;
#277=VERTEX_POINT('Vertex Point',#276) ;
#279=VERTEX_POINT('Vertex Point',#278) ;
#308=VERTEX_POINT('Vertex Point',#307) ;
#315=VERTEX_POINT('Vertex Point',#314) ;
#339=VERTEX_POINT('Vertex Point',#338) ;
#341=VERTEX_POINT('Vertex Point',#340) ;
#370=VERTEX_POINT('Vertex Point',#369) ;
#377=VERTEX_POINT('Vertex Point',#376) ;
#41=(LENGTH_UNIT()NAMED_UNIT(*)SI_UNIT(.MILLI.,.METRE.)) ;
#42=(NAMED_UNIT(*)PLANE_ANGLE_UNIT()SI_UNIT($,.RADIAN.)) ;
#44=(NAMED_UNIT(*)SI_UNIT($,.STERADIAN.)SOLID_ANGLE_UNIT()) ;
#46=(GEOMETRIC_REPRESENTATION_CONTEXT(3)GLOBAL_UNCERTAINTY_ASSIGNED_CONTEXT((#45))GLOBAL_UNIT_ASSIGNED_CONTEXT((#41,#42,#44))REPRESENTATION_CONTEXT(' ',' ')) ;
ENDSEC;
END-ISO-10303-21;
