ISO-10303-21;
HEADER;
FILE_DESCRIPTION((''),'2;1');
FILE_NAME('BRIDE_V4','2020-01-29T10:25:21',('KD4185'),(''),
'CREO PARAMETRIC BY PTC INC, 2018420','CREO PARAMETRIC BY PTC INC, 2018420','');
FILE_SCHEMA(('CONFIG_CONTROL_DESIGN'));
ENDSEC;
DATA;
#2=DIRECTION('',(0.E0,0.E0,-1.E0));
#3=VECTOR('',#2,5.2E1);
#4=CARTESIAN_POINT('',(3.35E1,0.E0,0.E0));
#5=LINE('',#4,#3);
#6=DIRECTION('',(-1.E0,0.E0,0.E0));
#7=VECTOR('',#6,1.85E1);
#8=CARTESIAN_POINT('',(3.35E1,0.E0,-5.2E1));
#9=LINE('',#8,#7);
#10=DIRECTION('',(0.E0,0.E0,1.E0));
#11=VECTOR('',#10,3.6E1);
#12=CARTESIAN_POINT('',(1.5E1,0.E0,-5.2E1));
#13=LINE('',#12,#11);
#14=CARTESIAN_POINT('',(1.1E1,0.E0,-1.6E1));
#15=DIRECTION('',(0.E0,-1.E0,0.E0));
#16=DIRECTION('',(1.E0,0.E0,0.E0));
#17=AXIS2_PLACEMENT_3D('',#14,#15,#16);
#19=DIRECTION('',(-1.E0,0.E0,0.E0));
#20=VECTOR('',#19,2.2E1);
#21=CARTESIAN_POINT('',(1.1E1,0.E0,-1.2E1));
#22=LINE('',#21,#20);
#23=CARTESIAN_POINT('',(-1.1E1,0.E0,-1.6E1));
#24=DIRECTION('',(0.E0,-1.E0,0.E0));
#25=DIRECTION('',(0.E0,0.E0,1.E0));
#26=AXIS2_PLACEMENT_3D('',#23,#24,#25);
#28=DIRECTION('',(0.E0,0.E0,-1.E0));
#29=VECTOR('',#28,3.6E1);
#30=CARTESIAN_POINT('',(-1.5E1,0.E0,-1.6E1));
#31=LINE('',#30,#29);
#32=DIRECTION('',(-1.E0,0.E0,0.E0));
#33=VECTOR('',#32,1.85E1);
#34=CARTESIAN_POINT('',(-1.5E1,0.E0,-5.2E1));
#35=LINE('',#34,#33);
#36=DIRECTION('',(0.E0,0.E0,1.E0));
#37=VECTOR('',#36,5.2E1);
#38=CARTESIAN_POINT('',(-3.35E1,0.E0,-5.2E1));
#39=LINE('',#38,#37);
#40=DIRECTION('',(1.E0,0.E0,0.E0));
#41=VECTOR('',#40,6.7E1);
#42=CARTESIAN_POINT('',(-3.35E1,0.E0,0.E0));
#43=LINE('',#42,#41);
#44=DIRECTION('',(0.E0,1.E0,0.E0));
#45=VECTOR('',#44,1.8E1);
#46=CARTESIAN_POINT('',(3.35E1,0.E0,0.E0));
#47=LINE('',#46,#45);
#48=DIRECTION('',(0.E0,1.E0,0.E0));
#49=VECTOR('',#48,1.8E1);
#50=CARTESIAN_POINT('',(-3.35E1,0.E0,0.E0));
#51=LINE('',#50,#49);
#52=CARTESIAN_POINT('',(-2.5E1,8.05E0,0.E0));
#53=DIRECTION('',(0.E0,0.E0,1.E0));
#54=DIRECTION('',(1.E0,0.E0,0.E0));
#55=AXIS2_PLACEMENT_3D('',#52,#53,#54);
#57=CARTESIAN_POINT('',(-2.5E1,8.05E0,0.E0));
#58=DIRECTION('',(0.E0,0.E0,1.E0));
#59=DIRECTION('',(-1.E0,0.E0,0.E0));
#60=AXIS2_PLACEMENT_3D('',#57,#58,#59);
#62=CARTESIAN_POINT('',(2.5E1,8.05E0,0.E0));
#63=DIRECTION('',(0.E0,0.E0,1.E0));
#64=DIRECTION('',(1.E0,0.E0,0.E0));
#65=AXIS2_PLACEMENT_3D('',#62,#63,#64);
#67=CARTESIAN_POINT('',(2.5E1,8.05E0,0.E0));
#68=DIRECTION('',(0.E0,0.E0,1.E0));
#69=DIRECTION('',(-1.E0,0.E0,0.E0));
#70=AXIS2_PLACEMENT_3D('',#67,#68,#69);
#72=DIRECTION('',(0.E0,1.E0,0.E0));
#73=VECTOR('',#72,1.8E1);
#74=CARTESIAN_POINT('',(-3.35E1,0.E0,-5.2E1));
#75=LINE('',#74,#73);
#76=DIRECTION('',(-1.E0,0.E0,0.E0));
#77=VECTOR('',#76,4.E0);
#78=CARTESIAN_POINT('',(-1.5E1,1.E1,-5.2E1));
#79=LINE('',#78,#77);
#80=DIRECTION('',(0.E0,-1.E0,0.E0));
#81=VECTOR('',#80,8.E0);
#82=CARTESIAN_POINT('',(-1.9E1,1.8E1,-5.2E1));
#83=LINE('',#82,#81);
#84=DIRECTION('',(0.E0,1.E0,0.E0));
#85=VECTOR('',#84,1.E1);
#86=CARTESIAN_POINT('',(-1.5E1,0.E0,-5.2E1));
#87=LINE('',#86,#85);
#88=CARTESIAN_POINT('',(-2.5E1,8.05E0,-5.2E1));
#89=DIRECTION('',(0.E0,0.E0,1.E0));
#90=DIRECTION('',(1.E0,0.E0,0.E0));
#91=AXIS2_PLACEMENT_3D('',#88,#89,#90);
#93=CARTESIAN_POINT('',(-2.5E1,8.05E0,-5.2E1));
#94=DIRECTION('',(0.E0,0.E0,1.E0));
#95=DIRECTION('',(-1.E0,0.E0,0.E0));
#96=AXIS2_PLACEMENT_3D('',#93,#94,#95);
#98=DIRECTION('',(0.E0,0.E0,-1.E0));
#99=VECTOR('',#98,3.8E1);
#100=CARTESIAN_POINT('',(1.9E1,1.E1,-1.4E1));
#101=LINE('',#100,#99);
#102=CARTESIAN_POINT('',(1.3E1,1.E1,-1.4E1));
#103=DIRECTION('',(0.E0,1.E0,0.E0));
#104=DIRECTION('',(0.E0,0.E0,1.E0));
#105=AXIS2_PLACEMENT_3D('',#102,#103,#104);
#107=DIRECTION('',(1.E0,0.E0,0.E0));
#108=VECTOR('',#107,2.6E1);
#109=CARTESIAN_POINT('',(-1.3E1,1.E1,-8.E0));
#110=LINE('',#109,#108);
#111=CARTESIAN_POINT('',(-1.3E1,1.E1,-1.4E1));
#112=DIRECTION('',(0.E0,1.E0,0.E0));
#113=DIRECTION('',(-1.E0,0.E0,0.E0));
#114=AXIS2_PLACEMENT_3D('',#111,#112,#113);
#116=DIRECTION('',(0.E0,0.E0,1.E0));
#117=VECTOR('',#116,3.8E1);
#118=CARTESIAN_POINT('',(-1.9E1,1.E1,-5.2E1));
#119=LINE('',#118,#117);
#120=DIRECTION('',(1.E0,0.E0,0.E0));
#121=VECTOR('',#120,4.E0);
#122=CARTESIAN_POINT('',(1.5E1,1.E1,-5.2E1));
#123=LINE('',#122,#121);
#124=DIRECTION('',(0.E0,1.E0,0.E0));
#125=VECTOR('',#124,1.8E1);
#126=CARTESIAN_POINT('',(3.35E1,0.E0,-5.2E1));
#127=LINE('',#126,#125);
#128=DIRECTION('',(0.E0,-1.E0,0.E0));
#129=VECTOR('',#128,8.E0);
#130=CARTESIAN_POINT('',(1.9E1,1.8E1,-5.2E1));
#131=LINE('',#130,#129);
#132=CARTESIAN_POINT('',(2.5E1,8.05E0,-5.2E1));
#133=DIRECTION('',(0.E0,0.E0,1.E0));
#134=DIRECTION('',(1.E0,0.E0,0.E0));
#135=AXIS2_PLACEMENT_3D('',#132,#133,#134);
#137=CARTESIAN_POINT('',(2.5E1,8.05E0,-5.2E1));
#138=DIRECTION('',(0.E0,0.E0,1.E0));
#139=DIRECTION('',(-1.E0,0.E0,0.E0));
#140=AXIS2_PLACEMENT_3D('',#137,#138,#139);
#142=DIRECTION('',(0.E0,0.E0,1.E0));
#143=VECTOR('',#142,3.6E1);
#144=CARTESIAN_POINT('',(1.5E1,1.E1,-5.2E1));
#145=LINE('',#144,#143);
#146=DIRECTION('',(0.E0,1.E0,0.E0));
#147=VECTOR('',#146,1.E1);
#148=CARTESIAN_POINT('',(1.5E1,0.E0,-5.2E1));
#149=LINE('',#148,#147);
#150=CARTESIAN_POINT('',(1.1E1,1.E1,-1.6E1));
#151=DIRECTION('',(0.E0,1.E0,0.E0));
#152=DIRECTION('',(0.E0,0.E0,1.E0));
#153=AXIS2_PLACEMENT_3D('',#150,#151,#152);
#155=DIRECTION('',(0.E0,1.E0,0.E0));
#156=VECTOR('',#155,1.E1);
#157=CARTESIAN_POINT('',(1.5E1,0.E0,-1.6E1));
#158=LINE('',#157,#156);
#159=DIRECTION('',(-1.E0,0.E0,0.E0));
#160=VECTOR('',#159,2.2E1);
#161=CARTESIAN_POINT('',(1.1E1,1.E1,-1.2E1));
#162=LINE('',#161,#160);
#163=DIRECTION('',(0.E0,1.E0,0.E0));
#164=VECTOR('',#163,1.E1);
#165=CARTESIAN_POINT('',(1.1E1,0.E0,-1.2E1));
#166=LINE('',#165,#164);
#167=CARTESIAN_POINT('',(-1.1E1,1.E1,-1.6E1));
#168=DIRECTION('',(0.E0,1.E0,0.E0));
#169=DIRECTION('',(-1.E0,0.E0,0.E0));
#170=AXIS2_PLACEMENT_3D('',#167,#168,#169);
#172=DIRECTION('',(0.E0,1.E0,0.E0));
#173=VECTOR('',#172,1.E1);
#174=CARTESIAN_POINT('',(-1.1E1,0.E0,-1.2E1));
#175=LINE('',#174,#173);
#176=DIRECTION('',(0.E0,0.E0,-1.E0));
#177=VECTOR('',#176,3.6E1);
#178=CARTESIAN_POINT('',(-1.5E1,1.E1,-1.6E1));
#179=LINE('',#178,#177);
#180=DIRECTION('',(0.E0,1.E0,0.E0));
#181=VECTOR('',#180,1.E1);
#182=CARTESIAN_POINT('',(-1.5E1,0.E0,-1.6E1));
#183=LINE('',#182,#181);
#184=DIRECTION('',(0.E0,0.E0,1.E0));
#185=VECTOR('',#184,3.8E1);
#186=CARTESIAN_POINT('',(-1.9E1,1.8E1,-5.2E1));
#187=LINE('',#186,#185);
#188=CARTESIAN_POINT('',(-1.3E1,1.8E1,-1.4E1));
#189=DIRECTION('',(0.E0,1.E0,0.E0));
#190=DIRECTION('',(-1.E0,0.E0,0.E0));
#191=AXIS2_PLACEMENT_3D('',#188,#189,#190);
#193=DIRECTION('',(1.E0,0.E0,0.E0));
#194=VECTOR('',#193,2.6E1);
#195=CARTESIAN_POINT('',(-1.3E1,1.8E1,-8.E0));
#196=LINE('',#195,#194);
#197=CARTESIAN_POINT('',(1.3E1,1.8E1,-1.4E1));
#198=DIRECTION('',(0.E0,1.E0,0.E0));
#199=DIRECTION('',(0.E0,0.E0,1.E0));
#200=AXIS2_PLACEMENT_3D('',#197,#198,#199);
#202=DIRECTION('',(0.E0,0.E0,1.E0));
#203=VECTOR('',#202,3.8E1);
#204=CARTESIAN_POINT('',(1.9E1,1.8E1,-5.2E1));
#205=LINE('',#204,#203);
#206=DIRECTION('',(-1.E0,0.E0,0.E0));
#207=VECTOR('',#206,1.45E1);
#208=CARTESIAN_POINT('',(3.35E1,1.8E1,-5.2E1));
#209=LINE('',#208,#207);
#210=DIRECTION('',(0.E0,0.E0,-1.E0));
#211=VECTOR('',#210,5.2E1);
#212=CARTESIAN_POINT('',(3.35E1,1.8E1,0.E0));
#213=LINE('',#212,#211);
#214=DIRECTION('',(1.E0,0.E0,0.E0));
#215=VECTOR('',#214,6.7E1);
#216=CARTESIAN_POINT('',(-3.35E1,1.8E1,0.E0));
#217=LINE('',#216,#215);
#218=DIRECTION('',(0.E0,0.E0,1.E0));
#219=VECTOR('',#218,5.2E1);
#220=CARTESIAN_POINT('',(-3.35E1,1.8E1,-5.2E1));
#221=LINE('',#220,#219);
#222=DIRECTION('',(-1.E0,0.E0,0.E0));
#223=VECTOR('',#222,1.45E1);
#224=CARTESIAN_POINT('',(-1.9E1,1.8E1,-5.2E1));
#225=LINE('',#224,#223);
#226=DIRECTION('',(0.E0,-1.E0,0.E0));
#227=VECTOR('',#226,8.E0);
#228=CARTESIAN_POINT('',(-1.9E1,1.8E1,-1.4E1));
#229=LINE('',#228,#227);
#230=DIRECTION('',(0.E0,-1.E0,0.E0));
#231=VECTOR('',#230,8.E0);
#232=CARTESIAN_POINT('',(-1.3E1,1.8E1,-8.E0));
#233=LINE('',#232,#231);
#234=DIRECTION('',(0.E0,-1.E0,0.E0));
#235=VECTOR('',#234,8.E0);
#236=CARTESIAN_POINT('',(1.3E1,1.8E1,-8.E0));
#237=LINE('',#236,#235);
#238=DIRECTION('',(0.E0,-1.E0,0.E0));
#239=VECTOR('',#238,8.E0);
#240=CARTESIAN_POINT('',(1.9E1,1.8E1,-1.4E1));
#241=LINE('',#240,#239);
#242=DIRECTION('',(0.E0,0.E0,1.E0));
#243=VECTOR('',#242,5.2E1);
#244=CARTESIAN_POINT('',(2.83E1,8.05E0,-5.2E1));
#245=LINE('',#244,#243);
#246=DIRECTION('',(0.E0,0.E0,1.E0));
#247=VECTOR('',#246,5.2E1);
#248=CARTESIAN_POINT('',(2.17E1,8.05E0,-5.2E1));
#249=LINE('',#248,#247);
#250=DIRECTION('',(0.E0,0.E0,1.E0));
#251=VECTOR('',#250,5.2E1);
#252=CARTESIAN_POINT('',(-2.17E1,8.05E0,-5.2E1));
#253=LINE('',#252,#251);
#254=DIRECTION('',(0.E0,0.E0,1.E0));
#255=VECTOR('',#254,5.2E1);
#256=CARTESIAN_POINT('',(-2.83E1,8.05E0,-5.2E1));
#257=LINE('',#256,#255);
#258=CARTESIAN_POINT('',(3.35E1,0.E0,0.E0));
#259=CARTESIAN_POINT('',(3.35E1,0.E0,-5.2E1));
#260=VERTEX_POINT('',#258);
#261=VERTEX_POINT('',#259);
#262=CARTESIAN_POINT('',(1.5E1,0.E0,-5.2E1));
#263=VERTEX_POINT('',#262);
#264=CARTESIAN_POINT('',(1.5E1,0.E0,-1.6E1));
#265=VERTEX_POINT('',#264);
#266=CARTESIAN_POINT('',(1.1E1,0.E0,-1.2E1));
#267=CARTESIAN_POINT('',(-1.1E1,0.E0,-1.2E1));
#268=VERTEX_POINT('',#266);
#269=VERTEX_POINT('',#267);
#270=CARTESIAN_POINT('',(-1.5E1,0.E0,-1.6E1));
#271=CARTESIAN_POINT('',(-1.5E1,0.E0,-5.2E1));
#272=VERTEX_POINT('',#270);
#273=VERTEX_POINT('',#271);
#274=CARTESIAN_POINT('',(-3.35E1,0.E0,-5.2E1));
#275=VERTEX_POINT('',#274);
#276=CARTESIAN_POINT('',(-3.35E1,0.E0,0.E0));
#277=VERTEX_POINT('',#276);
#278=CARTESIAN_POINT('',(3.35E1,1.8E1,0.E0));
#279=CARTESIAN_POINT('',(3.35E1,1.8E1,-5.2E1));
#280=VERTEX_POINT('',#278);
#281=VERTEX_POINT('',#279);
#282=CARTESIAN_POINT('',(-3.35E1,1.8E1,-5.2E1));
#283=CARTESIAN_POINT('',(-3.35E1,1.8E1,0.E0));
#284=VERTEX_POINT('',#282);
#285=VERTEX_POINT('',#283);
#286=CARTESIAN_POINT('',(-1.9E1,1.E1,-1.4E1));
#287=CARTESIAN_POINT('',(-1.3E1,1.E1,-8.E0));
#288=VERTEX_POINT('',#286);
#289=VERTEX_POINT('',#287);
#290=CARTESIAN_POINT('',(1.3E1,1.E1,-8.E0));
#291=VERTEX_POINT('',#290);
#292=CARTESIAN_POINT('',(1.9E1,1.E1,-1.4E1));
#293=VERTEX_POINT('',#292);
#294=CARTESIAN_POINT('',(-1.9E1,1.8E1,-5.2E1));
#295=CARTESIAN_POINT('',(-1.9E1,1.8E1,-1.4E1));
#296=VERTEX_POINT('',#294);
#297=VERTEX_POINT('',#295);
#298=CARTESIAN_POINT('',(-1.3E1,1.8E1,-8.E0));
#299=VERTEX_POINT('',#298);
#300=CARTESIAN_POINT('',(1.3E1,1.8E1,-8.E0));
#301=VERTEX_POINT('',#300);
#302=CARTESIAN_POINT('',(1.9E1,1.8E1,-1.4E1));
#303=VERTEX_POINT('',#302);
#304=CARTESIAN_POINT('',(1.9E1,1.8E1,-5.2E1));
#305=VERTEX_POINT('',#304);
#306=CARTESIAN_POINT('',(1.5E1,1.E1,-5.2E1));
#307=CARTESIAN_POINT('',(1.9E1,1.E1,-5.2E1));
#308=VERTEX_POINT('',#306);
#309=VERTEX_POINT('',#307);
#310=CARTESIAN_POINT('',(1.5E1,1.E1,-1.6E1));
#311=VERTEX_POINT('',#310);
#312=CARTESIAN_POINT('',(1.1E1,1.E1,-1.2E1));
#313=CARTESIAN_POINT('',(-1.1E1,1.E1,-1.2E1));
#314=VERTEX_POINT('',#312);
#315=VERTEX_POINT('',#313);
#316=CARTESIAN_POINT('',(-1.5E1,1.E1,-1.6E1));
#317=CARTESIAN_POINT('',(-1.5E1,1.E1,-5.2E1));
#318=VERTEX_POINT('',#316);
#319=VERTEX_POINT('',#317);
#320=CARTESIAN_POINT('',(-1.9E1,1.E1,-5.2E1));
#321=VERTEX_POINT('',#320);
#322=CARTESIAN_POINT('',(-2.17E1,8.05E0,0.E0));
#323=CARTESIAN_POINT('',(-2.83E1,8.05E0,0.E0));
#324=VERTEX_POINT('',#322);
#325=VERTEX_POINT('',#323);
#326=CARTESIAN_POINT('',(-2.17E1,8.05E0,-5.2E1));
#327=VERTEX_POINT('',#326);
#328=CARTESIAN_POINT('',(-2.83E1,8.05E0,-5.2E1));
#329=VERTEX_POINT('',#328);
#330=CARTESIAN_POINT('',(2.83E1,8.05E0,0.E0));
#331=CARTESIAN_POINT('',(2.17E1,8.05E0,0.E0));
#332=VERTEX_POINT('',#330);
#333=VERTEX_POINT('',#331);
#334=CARTESIAN_POINT('',(2.83E1,8.05E0,-5.2E1));
#335=VERTEX_POINT('',#334);
#336=CARTESIAN_POINT('',(2.17E1,8.05E0,-5.2E1));
#337=VERTEX_POINT('',#336);
#338=CARTESIAN_POINT('',(0.E0,0.E0,0.E0));
#339=DIRECTION('',(0.E0,1.E0,0.E0));
#340=DIRECTION('',(1.E0,0.E0,0.E0));
#341=AXIS2_PLACEMENT_3D('',#338,#339,#340);
#342=PLANE('',#341);
#344=ORIENTED_EDGE('',*,*,#343,.T.);
#346=ORIENTED_EDGE('',*,*,#345,.T.);
#348=ORIENTED_EDGE('',*,*,#347,.T.);
#350=ORIENTED_EDGE('',*,*,#349,.T.);
#352=ORIENTED_EDGE('',*,*,#351,.T.);
#354=ORIENTED_EDGE('',*,*,#353,.T.);
#356=ORIENTED_EDGE('',*,*,#355,.T.);
#358=ORIENTED_EDGE('',*,*,#357,.T.);
#360=ORIENTED_EDGE('',*,*,#359,.T.);
#362=ORIENTED_EDGE('',*,*,#361,.T.);
#363=EDGE_LOOP('',(#344,#346,#348,#350,#352,#354,#356,#358,#360,#362));
#364=FACE_OUTER_BOUND('',#363,.F.);
#365=ADVANCED_FACE('',(#364),#342,.F.);
#366=CARTESIAN_POINT('',(3.35E1,0.E0,0.E0));
#367=DIRECTION('',(1.E0,0.E0,0.E0));
#368=DIRECTION('',(0.E0,0.E0,-1.E0));
#369=AXIS2_PLACEMENT_3D('',#366,#367,#368);
#370=PLANE('',#369);
#371=ORIENTED_EDGE('',*,*,#343,.F.);
#373=ORIENTED_EDGE('',*,*,#372,.T.);
#375=ORIENTED_EDGE('',*,*,#374,.T.);
#377=ORIENTED_EDGE('',*,*,#376,.F.);
#378=EDGE_LOOP('',(#371,#373,#375,#377));
#379=FACE_OUTER_BOUND('',#378,.F.);
#380=ADVANCED_FACE('',(#379),#370,.T.);
#381=CARTESIAN_POINT('',(-3.35E1,0.E0,0.E0));
#382=DIRECTION('',(0.E0,0.E0,1.E0));
#383=DIRECTION('',(1.E0,0.E0,0.E0));
#384=AXIS2_PLACEMENT_3D('',#381,#382,#383);
#385=PLANE('',#384);
#386=ORIENTED_EDGE('',*,*,#361,.F.);
#388=ORIENTED_EDGE('',*,*,#387,.T.);
#390=ORIENTED_EDGE('',*,*,#389,.T.);
#391=ORIENTED_EDGE('',*,*,#372,.F.);
#392=EDGE_LOOP('',(#386,#388,#390,#391));
#393=FACE_OUTER_BOUND('',#392,.F.);
#395=ORIENTED_EDGE('',*,*,#394,.T.);
#397=ORIENTED_EDGE('',*,*,#396,.T.);
#398=EDGE_LOOP('',(#395,#397));
#399=FACE_BOUND('',#398,.F.);
#401=ORIENTED_EDGE('',*,*,#400,.T.);
#403=ORIENTED_EDGE('',*,*,#402,.T.);
#404=EDGE_LOOP('',(#401,#403));
#405=FACE_BOUND('',#404,.F.);
#406=ADVANCED_FACE('',(#393,#399,#405),#385,.T.);
#407=CARTESIAN_POINT('',(-3.35E1,0.E0,-5.2E1));
#408=DIRECTION('',(-1.E0,0.E0,0.E0));
#409=DIRECTION('',(0.E0,0.E0,1.E0));
#410=AXIS2_PLACEMENT_3D('',#407,#408,#409);
#411=PLANE('',#410);
#412=ORIENTED_EDGE('',*,*,#359,.F.);
#414=ORIENTED_EDGE('',*,*,#413,.T.);
#416=ORIENTED_EDGE('',*,*,#415,.T.);
#417=ORIENTED_EDGE('',*,*,#387,.F.);
#418=EDGE_LOOP('',(#412,#414,#416,#417));
#419=FACE_OUTER_BOUND('',#418,.F.);
#420=ADVANCED_FACE('',(#419),#411,.T.);
#421=CARTESIAN_POINT('',(-1.5E1,0.E0,-5.2E1));
#422=DIRECTION('',(0.E0,0.E0,-1.E0));
#423=DIRECTION('',(-1.E0,0.E0,0.E0));
#424=AXIS2_PLACEMENT_3D('',#421,#422,#423);
#425=PLANE('',#424);
#427=ORIENTED_EDGE('',*,*,#426,.T.);
#429=ORIENTED_EDGE('',*,*,#428,.F.);
#431=ORIENTED_EDGE('',*,*,#430,.T.);
#432=ORIENTED_EDGE('',*,*,#413,.F.);
#433=ORIENTED_EDGE('',*,*,#357,.F.);
#435=ORIENTED_EDGE('',*,*,#434,.T.);
#436=EDGE_LOOP('',(#427,#429,#431,#432,#433,#435));
#437=FACE_OUTER_BOUND('',#436,.F.);
#439=ORIENTED_EDGE('',*,*,#438,.F.);
#441=ORIENTED_EDGE('',*,*,#440,.F.);
#442=EDGE_LOOP('',(#439,#441));
#443=FACE_BOUND('',#442,.F.);
#444=ADVANCED_FACE('',(#437,#443),#425,.T.);
#445=CARTESIAN_POINT('',(0.E0,1.E1,0.E0));
#446=DIRECTION('',(0.E0,1.E0,0.E0));
#447=DIRECTION('',(1.E0,0.E0,0.E0));
#448=AXIS2_PLACEMENT_3D('',#445,#446,#447);
#449=PLANE('',#448);
#451=ORIENTED_EDGE('',*,*,#450,.T.);
#453=ORIENTED_EDGE('',*,*,#452,.F.);
#455=ORIENTED_EDGE('',*,*,#454,.F.);
#457=ORIENTED_EDGE('',*,*,#456,.F.);
#459=ORIENTED_EDGE('',*,*,#458,.F.);
#461=ORIENTED_EDGE('',*,*,#460,.F.);
#462=ORIENTED_EDGE('',*,*,#426,.F.);
#464=ORIENTED_EDGE('',*,*,#463,.F.);
#466=ORIENTED_EDGE('',*,*,#465,.T.);
#468=ORIENTED_EDGE('',*,*,#467,.F.);
#470=ORIENTED_EDGE('',*,*,#469,.T.);
#472=ORIENTED_EDGE('',*,*,#471,.F.);
#473=EDGE_LOOP('',(#451,#453,#455,#457,#459,#461,#462,#464,#466,#468,#470,
#472));
#474=FACE_OUTER_BOUND('',#473,.F.);
#475=ADVANCED_FACE('',(#474),#449,.T.);
#476=CARTESIAN_POINT('',(3.35E1,0.E0,-5.2E1));
#477=DIRECTION('',(0.E0,0.E0,-1.E0));
#478=DIRECTION('',(-1.E0,0.E0,0.E0));
#479=AXIS2_PLACEMENT_3D('',#476,#477,#478);
#480=PLANE('',#479);
#481=ORIENTED_EDGE('',*,*,#450,.F.);
#483=ORIENTED_EDGE('',*,*,#482,.F.);
#484=ORIENTED_EDGE('',*,*,#345,.F.);
#485=ORIENTED_EDGE('',*,*,#376,.T.);
#487=ORIENTED_EDGE('',*,*,#486,.T.);
#489=ORIENTED_EDGE('',*,*,#488,.T.);
#490=EDGE_LOOP('',(#481,#483,#484,#485,#487,#489));
#491=FACE_OUTER_BOUND('',#490,.F.);
#493=ORIENTED_EDGE('',*,*,#492,.F.);
#495=ORIENTED_EDGE('',*,*,#494,.F.);
#496=EDGE_LOOP('',(#493,#495));
#497=FACE_BOUND('',#496,.F.);
#498=ADVANCED_FACE('',(#491,#497),#480,.T.);
#499=CARTESIAN_POINT('',(1.5E1,0.E0,-5.2E1));
#500=DIRECTION('',(-1.E0,0.E0,0.E0));
#501=DIRECTION('',(0.E0,0.E0,1.E0));
#502=AXIS2_PLACEMENT_3D('',#499,#500,#501);
#503=PLANE('',#502);
#504=ORIENTED_EDGE('',*,*,#471,.T.);
#506=ORIENTED_EDGE('',*,*,#505,.F.);
#507=ORIENTED_EDGE('',*,*,#347,.F.);
#508=ORIENTED_EDGE('',*,*,#482,.T.);
#509=EDGE_LOOP('',(#504,#506,#507,#508));
#510=FACE_OUTER_BOUND('',#509,.F.);
#511=ADVANCED_FACE('',(#510),#503,.T.);
#512=CARTESIAN_POINT('',(1.1E1,0.E0,-1.6E1));
#513=DIRECTION('',(0.E0,1.E0,0.E0));
#514=DIRECTION('',(1.E0,0.E0,0.E0));
#515=AXIS2_PLACEMENT_3D('',#512,#513,#514);
#516=CYLINDRICAL_SURFACE('',#515,4.E0);
#517=ORIENTED_EDGE('',*,*,#469,.F.);
#519=ORIENTED_EDGE('',*,*,#518,.F.);
#520=ORIENTED_EDGE('',*,*,#349,.F.);
#521=ORIENTED_EDGE('',*,*,#505,.T.);
#522=EDGE_LOOP('',(#517,#519,#520,#521));
#523=FACE_OUTER_BOUND('',#522,.F.);
#524=ADVANCED_FACE('',(#523),#516,.F.);
#525=CARTESIAN_POINT('',(1.1E1,0.E0,-1.2E1));
#526=DIRECTION('',(0.E0,0.E0,-1.E0));
#527=DIRECTION('',(-1.E0,0.E0,0.E0));
#528=AXIS2_PLACEMENT_3D('',#525,#526,#527);
#529=PLANE('',#528);
#530=ORIENTED_EDGE('',*,*,#467,.T.);
#532=ORIENTED_EDGE('',*,*,#531,.F.);
#533=ORIENTED_EDGE('',*,*,#351,.F.);
#534=ORIENTED_EDGE('',*,*,#518,.T.);
#535=EDGE_LOOP('',(#530,#532,#533,#534));
#536=FACE_OUTER_BOUND('',#535,.F.);
#537=ADVANCED_FACE('',(#536),#529,.T.);
#538=CARTESIAN_POINT('',(-1.1E1,0.E0,-1.6E1));
#539=DIRECTION('',(0.E0,1.E0,0.E0));
#540=DIRECTION('',(1.E0,0.E0,0.E0));
#541=AXIS2_PLACEMENT_3D('',#538,#539,#540);
#542=CYLINDRICAL_SURFACE('',#541,4.E0);
#543=ORIENTED_EDGE('',*,*,#465,.F.);
#545=ORIENTED_EDGE('',*,*,#544,.F.);
#546=ORIENTED_EDGE('',*,*,#353,.F.);
#547=ORIENTED_EDGE('',*,*,#531,.T.);
#548=EDGE_LOOP('',(#543,#545,#546,#547));
#549=FACE_OUTER_BOUND('',#548,.F.);
#550=ADVANCED_FACE('',(#549),#542,.F.);
#551=CARTESIAN_POINT('',(-1.5E1,0.E0,-1.6E1));
#552=DIRECTION('',(1.E0,0.E0,0.E0));
#553=DIRECTION('',(0.E0,0.E0,-1.E0));
#554=AXIS2_PLACEMENT_3D('',#551,#552,#553);
#555=PLANE('',#554);
#556=ORIENTED_EDGE('',*,*,#463,.T.);
#557=ORIENTED_EDGE('',*,*,#434,.F.);
#558=ORIENTED_EDGE('',*,*,#355,.F.);
#559=ORIENTED_EDGE('',*,*,#544,.T.);
#560=EDGE_LOOP('',(#556,#557,#558,#559));
#561=FACE_OUTER_BOUND('',#560,.F.);
#562=ADVANCED_FACE('',(#561),#555,.T.);
#563=CARTESIAN_POINT('',(0.E0,1.8E1,0.E0));
#564=DIRECTION('',(0.E0,1.E0,0.E0));
#565=DIRECTION('',(1.E0,0.E0,0.E0));
#566=AXIS2_PLACEMENT_3D('',#563,#564,#565);
#567=PLANE('',#566);
#569=ORIENTED_EDGE('',*,*,#568,.T.);
#571=ORIENTED_EDGE('',*,*,#570,.T.);
#573=ORIENTED_EDGE('',*,*,#572,.T.);
#575=ORIENTED_EDGE('',*,*,#574,.T.);
#577=ORIENTED_EDGE('',*,*,#576,.F.);
#578=ORIENTED_EDGE('',*,*,#486,.F.);
#579=ORIENTED_EDGE('',*,*,#374,.F.);
#580=ORIENTED_EDGE('',*,*,#389,.F.);
#581=ORIENTED_EDGE('',*,*,#415,.F.);
#582=ORIENTED_EDGE('',*,*,#430,.F.);
#583=EDGE_LOOP('',(#569,#571,#573,#575,#577,#578,#579,#580,#581,#582));
#584=FACE_OUTER_BOUND('',#583,.F.);
#585=ADVANCED_FACE('',(#584),#567,.T.);
#586=CARTESIAN_POINT('',(-1.9E1,1.8E1,-5.2E1));
#587=DIRECTION('',(-1.E0,0.E0,0.E0));
#588=DIRECTION('',(0.E0,0.E0,1.E0));
#589=AXIS2_PLACEMENT_3D('',#586,#587,#588);
#590=PLANE('',#589);
#591=ORIENTED_EDGE('',*,*,#568,.F.);
#592=ORIENTED_EDGE('',*,*,#428,.T.);
#593=ORIENTED_EDGE('',*,*,#460,.T.);
#595=ORIENTED_EDGE('',*,*,#594,.F.);
#596=EDGE_LOOP('',(#591,#592,#593,#595));
#597=FACE_OUTER_BOUND('',#596,.F.);
#598=ADVANCED_FACE('',(#597),#590,.F.);
#599=CARTESIAN_POINT('',(-1.3E1,1.8E1,-1.4E1));
#600=DIRECTION('',(0.E0,1.E0,0.E0));
#601=DIRECTION('',(1.E0,0.E0,0.E0));
#602=AXIS2_PLACEMENT_3D('',#599,#600,#601);
#603=CYLINDRICAL_SURFACE('',#602,6.E0);
#604=ORIENTED_EDGE('',*,*,#570,.F.);
#605=ORIENTED_EDGE('',*,*,#594,.T.);
#606=ORIENTED_EDGE('',*,*,#458,.T.);
#608=ORIENTED_EDGE('',*,*,#607,.F.);
#609=EDGE_LOOP('',(#604,#605,#606,#608));
#610=FACE_OUTER_BOUND('',#609,.F.);
#611=ADVANCED_FACE('',(#610),#603,.F.);
#612=CARTESIAN_POINT('',(-1.3E1,1.8E1,-8.E0));
#613=DIRECTION('',(0.E0,0.E0,1.E0));
#614=DIRECTION('',(1.E0,0.E0,0.E0));
#615=AXIS2_PLACEMENT_3D('',#612,#613,#614);
#616=PLANE('',#615);
#617=ORIENTED_EDGE('',*,*,#572,.F.);
#618=ORIENTED_EDGE('',*,*,#607,.T.);
#619=ORIENTED_EDGE('',*,*,#456,.T.);
#621=ORIENTED_EDGE('',*,*,#620,.F.);
#622=EDGE_LOOP('',(#617,#618,#619,#621));
#623=FACE_OUTER_BOUND('',#622,.F.);
#624=ADVANCED_FACE('',(#623),#616,.F.);
#625=CARTESIAN_POINT('',(1.3E1,1.8E1,-1.4E1));
#626=DIRECTION('',(0.E0,1.E0,0.E0));
#627=DIRECTION('',(1.E0,0.E0,0.E0));
#628=AXIS2_PLACEMENT_3D('',#625,#626,#627);
#629=CYLINDRICAL_SURFACE('',#628,6.E0);
#630=ORIENTED_EDGE('',*,*,#574,.F.);
#631=ORIENTED_EDGE('',*,*,#620,.T.);
#632=ORIENTED_EDGE('',*,*,#454,.T.);
#634=ORIENTED_EDGE('',*,*,#633,.F.);
#635=EDGE_LOOP('',(#630,#631,#632,#634));
#636=FACE_OUTER_BOUND('',#635,.F.);
#637=ADVANCED_FACE('',(#636),#629,.F.);
#638=CARTESIAN_POINT('',(1.9E1,1.8E1,-1.4E1));
#639=DIRECTION('',(1.E0,0.E0,0.E0));
#640=DIRECTION('',(0.E0,0.E0,-1.E0));
#641=AXIS2_PLACEMENT_3D('',#638,#639,#640);
#642=PLANE('',#641);
#643=ORIENTED_EDGE('',*,*,#576,.T.);
#644=ORIENTED_EDGE('',*,*,#633,.T.);
#645=ORIENTED_EDGE('',*,*,#452,.T.);
#646=ORIENTED_EDGE('',*,*,#488,.F.);
#647=EDGE_LOOP('',(#643,#644,#645,#646));
#648=FACE_OUTER_BOUND('',#647,.F.);
#649=ADVANCED_FACE('',(#648),#642,.F.);
#650=CARTESIAN_POINT('',(2.5E1,8.05E0,-5.2E1));
#651=DIRECTION('',(0.E0,0.E0,1.E0));
#652=DIRECTION('',(1.E0,0.E0,0.E0));
#653=AXIS2_PLACEMENT_3D('',#650,#651,#652);
#654=CYLINDRICAL_SURFACE('',#653,3.3E0);
#655=ORIENTED_EDGE('',*,*,#400,.F.);
#657=ORIENTED_EDGE('',*,*,#656,.F.);
#658=ORIENTED_EDGE('',*,*,#492,.T.);
#660=ORIENTED_EDGE('',*,*,#659,.T.);
#661=EDGE_LOOP('',(#655,#657,#658,#660));
#662=FACE_OUTER_BOUND('',#661,.F.);
#663=ADVANCED_FACE('',(#662),#654,.F.);
#664=CARTESIAN_POINT('',(2.5E1,8.05E0,-5.2E1));
#665=DIRECTION('',(0.E0,0.E0,1.E0));
#666=DIRECTION('',(1.E0,0.E0,0.E0));
#667=AXIS2_PLACEMENT_3D('',#664,#665,#666);
#668=CYLINDRICAL_SURFACE('',#667,3.3E0);
#669=ORIENTED_EDGE('',*,*,#402,.F.);
#670=ORIENTED_EDGE('',*,*,#659,.F.);
#671=ORIENTED_EDGE('',*,*,#494,.T.);
#672=ORIENTED_EDGE('',*,*,#656,.T.);
#673=EDGE_LOOP('',(#669,#670,#671,#672));
#674=FACE_OUTER_BOUND('',#673,.F.);
#675=ADVANCED_FACE('',(#674),#668,.F.);
#676=CARTESIAN_POINT('',(-2.5E1,8.05E0,-5.2E1));
#677=DIRECTION('',(0.E0,0.E0,1.E0));
#678=DIRECTION('',(1.E0,0.E0,0.E0));
#679=AXIS2_PLACEMENT_3D('',#676,#677,#678);
#680=CYLINDRICAL_SURFACE('',#679,3.3E0);
#681=ORIENTED_EDGE('',*,*,#394,.F.);
#683=ORIENTED_EDGE('',*,*,#682,.F.);
#684=ORIENTED_EDGE('',*,*,#438,.T.);
#686=ORIENTED_EDGE('',*,*,#685,.T.);
#687=EDGE_LOOP('',(#681,#683,#684,#686));
#688=FACE_OUTER_BOUND('',#687,.F.);
#689=ADVANCED_FACE('',(#688),#680,.F.);
#690=CARTESIAN_POINT('',(-2.5E1,8.05E0,-5.2E1));
#691=DIRECTION('',(0.E0,0.E0,1.E0));
#692=DIRECTION('',(1.E0,0.E0,0.E0));
#693=AXIS2_PLACEMENT_3D('',#690,#691,#692);
#694=CYLINDRICAL_SURFACE('',#693,3.3E0);
#695=ORIENTED_EDGE('',*,*,#396,.F.);
#696=ORIENTED_EDGE('',*,*,#685,.F.);
#697=ORIENTED_EDGE('',*,*,#440,.T.);
#698=ORIENTED_EDGE('',*,*,#682,.T.);
#699=EDGE_LOOP('',(#695,#696,#697,#698));
#700=FACE_OUTER_BOUND('',#699,.F.);
#701=ADVANCED_FACE('',(#700),#694,.F.);
#702=CLOSED_SHELL('',(#365,#380,#406,#420,#444,#475,#498,#511,#524,#537,#550,
#562,#585,#598,#611,#624,#637,#649,#663,#675,#689,#701));
#703=MANIFOLD_SOLID_BREP('',#702);
#705=DIMENSIONAL_EXPONENTS(0.E0,0.E0,0.E0,0.E0,0.E0,0.E0,0.E0);
#707=PLANE_ANGLE_MEASURE_WITH_UNIT(PLANE_ANGLE_MEASURE(1.745329251994E-2),#706);
#708=(CONVERSION_BASED_UNIT('DEGREE',#707)NAMED_UNIT(*)PLANE_ANGLE_UNIT());
#710=UNCERTAINTY_MEASURE_WITH_UNIT(LENGTH_MEASURE(8.669716634370E-3),#704,
'closure',
'Maximum model space distance between geometric entities at asserted connectivities');
#711=(GEOMETRIC_REPRESENTATION_CONTEXT(3)GLOBAL_UNCERTAINTY_ASSIGNED_CONTEXT((
#710))GLOBAL_UNIT_ASSIGNED_CONTEXT((#704,#708,#709))REPRESENTATION_CONTEXT
('ID1','3'));
#713=APPLICATION_CONTEXT(
'CONFIGURATION CONTROLLED 3D DESIGNS OF MECHANICAL PARTS AND ASSEMBLIES');
#714=APPLICATION_PROTOCOL_DEFINITION('international standard',
'config_control_design',1994,#713);
#715=DESIGN_CONTEXT('',#713,'design');
#716=MECHANICAL_CONTEXT('',#713,'mechanical');
#717=PRODUCT('BRIDE_V4','BRIDE_V4','NOT SPECIFIED',(#716));
#718=PRODUCT_DEFINITION_FORMATION_WITH_SPECIFIED_SOURCE('23','LAST_VERSION',
#717,.MADE.);
#722=PRODUCT_CATEGORY('part','');
#723=PRODUCT_RELATED_PRODUCT_CATEGORY('detail','',(#717));
#724=PRODUCT_CATEGORY_RELATIONSHIP('','',#722,#723);
#725=SECURITY_CLASSIFICATION_LEVEL('unclassified');
#726=SECURITY_CLASSIFICATION('','',#725);
#727=CC_DESIGN_SECURITY_CLASSIFICATION(#726,(#718));
#728=APPROVAL_STATUS('approved');
#729=APPROVAL(#728,'');
#730=CC_DESIGN_APPROVAL(#729,(#726,#718,#719));
#731=CALENDAR_DATE(120,29,1);
#732=COORDINATED_UNIVERSAL_TIME_OFFSET(1,0,.AHEAD.);
#733=LOCAL_TIME(10,25,2.1E1,#732);
#734=DATE_AND_TIME(#731,#733);
#735=APPROVAL_DATE_TIME(#734,#729);
#736=DATE_TIME_ROLE('creation_date');
#737=CC_DESIGN_DATE_AND_TIME_ASSIGNMENT(#734,#736,(#719));
#738=DATE_TIME_ROLE('classification_date');
#739=CC_DESIGN_DATE_AND_TIME_ASSIGNMENT(#734,#738,(#726));
#740=PERSON('UNSPECIFIED','UNSPECIFIED',$,$,$,$);
#741=ORGANIZATION('UNSPECIFIED','UNSPECIFIED','UNSPECIFIED');
#742=PERSON_AND_ORGANIZATION(#740,#741);
#743=APPROVAL_ROLE('approver');
#744=APPROVAL_PERSON_ORGANIZATION(#742,#729,#743);
#745=PERSON_AND_ORGANIZATION_ROLE('creator');
#746=CC_DESIGN_PERSON_AND_ORGANIZATION_ASSIGNMENT(#742,#745,(#718,#719));
#747=PERSON_AND_ORGANIZATION_ROLE('design_supplier');
#748=CC_DESIGN_PERSON_AND_ORGANIZATION_ASSIGNMENT(#742,#747,(#718));
#749=PERSON_AND_ORGANIZATION_ROLE('classification_officer');
#750=CC_DESIGN_PERSON_AND_ORGANIZATION_ASSIGNMENT(#742,#749,(#726));
#751=PERSON_AND_ORGANIZATION_ROLE('design_owner');
#752=CC_DESIGN_PERSON_AND_ORGANIZATION_ASSIGNMENT(#742,#751,(#717));
#18=CIRCLE('',#17,4.E0);
#27=CIRCLE('',#26,4.E0);
#56=CIRCLE('',#55,3.3E0);
#61=CIRCLE('',#60,3.3E0);
#66=CIRCLE('',#65,3.3E0);
#71=CIRCLE('',#70,3.3E0);
#92=CIRCLE('',#91,3.3E0);
#97=CIRCLE('',#96,3.3E0);
#106=CIRCLE('',#105,6.E0);
#115=CIRCLE('',#114,6.E0);
#136=CIRCLE('',#135,3.3E0);
#141=CIRCLE('',#140,3.3E0);
#154=CIRCLE('',#153,4.E0);
#171=CIRCLE('',#170,4.E0);
#192=CIRCLE('',#191,6.E0);
#201=CIRCLE('',#200,6.E0);
#343=EDGE_CURVE('',#260,#261,#5,.T.);
#345=EDGE_CURVE('',#261,#263,#9,.T.);
#347=EDGE_CURVE('',#263,#265,#13,.T.);
#349=EDGE_CURVE('',#265,#268,#18,.T.);
#351=EDGE_CURVE('',#268,#269,#22,.T.);
#353=EDGE_CURVE('',#269,#272,#27,.T.);
#355=EDGE_CURVE('',#272,#273,#31,.T.);
#357=EDGE_CURVE('',#273,#275,#35,.T.);
#359=EDGE_CURVE('',#275,#277,#39,.T.);
#361=EDGE_CURVE('',#277,#260,#43,.T.);
#372=EDGE_CURVE('',#260,#280,#47,.T.);
#374=EDGE_CURVE('',#280,#281,#213,.T.);
#376=EDGE_CURVE('',#261,#281,#127,.T.);
#387=EDGE_CURVE('',#277,#285,#51,.T.);
#389=EDGE_CURVE('',#285,#280,#217,.T.);
#394=EDGE_CURVE('',#324,#325,#56,.T.);
#396=EDGE_CURVE('',#325,#324,#61,.T.);
#400=EDGE_CURVE('',#332,#333,#66,.T.);
#402=EDGE_CURVE('',#333,#332,#71,.T.);
#413=EDGE_CURVE('',#275,#284,#75,.T.);
#415=EDGE_CURVE('',#284,#285,#221,.T.);
#426=EDGE_CURVE('',#319,#321,#79,.T.);
#428=EDGE_CURVE('',#296,#321,#83,.T.);
#430=EDGE_CURVE('',#296,#284,#225,.T.);
#434=EDGE_CURVE('',#273,#319,#87,.T.);
#438=EDGE_CURVE('',#327,#329,#92,.T.);
#440=EDGE_CURVE('',#329,#327,#97,.T.);
#450=EDGE_CURVE('',#308,#309,#123,.T.);
#452=EDGE_CURVE('',#293,#309,#101,.T.);
#454=EDGE_CURVE('',#291,#293,#106,.T.);
#456=EDGE_CURVE('',#289,#291,#110,.T.);
#458=EDGE_CURVE('',#288,#289,#115,.T.);
#460=EDGE_CURVE('',#321,#288,#119,.T.);
#463=EDGE_CURVE('',#318,#319,#179,.T.);
#465=EDGE_CURVE('',#318,#315,#171,.T.);
#467=EDGE_CURVE('',#314,#315,#162,.T.);
#469=EDGE_CURVE('',#314,#311,#154,.T.);
#471=EDGE_CURVE('',#308,#311,#145,.T.);
#482=EDGE_CURVE('',#263,#308,#149,.T.);
#486=EDGE_CURVE('',#281,#305,#209,.T.);
#488=EDGE_CURVE('',#305,#309,#131,.T.);
#492=EDGE_CURVE('',#335,#337,#136,.T.);
#494=EDGE_CURVE('',#337,#335,#141,.T.);
#505=EDGE_CURVE('',#265,#311,#158,.T.);
#518=EDGE_CURVE('',#268,#314,#166,.T.);
#531=EDGE_CURVE('',#269,#315,#175,.T.);
#544=EDGE_CURVE('',#272,#318,#183,.T.);
#568=EDGE_CURVE('',#296,#297,#187,.T.);
#570=EDGE_CURVE('',#297,#299,#192,.T.);
#572=EDGE_CURVE('',#299,#301,#196,.T.);
#574=EDGE_CURVE('',#301,#303,#201,.T.);
#576=EDGE_CURVE('',#305,#303,#205,.T.);
#594=EDGE_CURVE('',#297,#288,#229,.T.);
#607=EDGE_CURVE('',#299,#289,#233,.T.);
#620=EDGE_CURVE('',#301,#291,#237,.T.);
#633=EDGE_CURVE('',#303,#293,#241,.T.);
#656=EDGE_CURVE('',#335,#332,#245,.T.);
#659=EDGE_CURVE('',#337,#333,#249,.T.);
#682=EDGE_CURVE('',#327,#324,#253,.T.);
#685=EDGE_CURVE('',#329,#325,#257,.T.);
#704=(LENGTH_UNIT()NAMED_UNIT(*)SI_UNIT(.MILLI.,.METRE.));
#706=(NAMED_UNIT(*)PLANE_ANGLE_UNIT()SI_UNIT($,.RADIAN.));
#709=(NAMED_UNIT(*)SI_UNIT($,.STERADIAN.)SOLID_ANGLE_UNIT());
#712=ADVANCED_BREP_SHAPE_REPRESENTATION('',(#703),#711);
#719=PRODUCT_DEFINITION('design','',#718,#715);
#720=PRODUCT_DEFINITION_SHAPE('','SHAPE FOR BRIDE_V4.',#719);
#721=SHAPE_DEFINITION_REPRESENTATION(#720,#712);
ENDSEC;
END-ISO-10303-21;
