ISO-10303-21;
HEADER;
FILE_DESCRIPTION((''),'2;1');
FILE_NAME('PION_V4','2020-01-29T10:25:49',('KD4185'),(''),
'CREO PARAMETRIC BY PTC INC, 2018420','CREO PARAMETRIC BY PTC INC, 2018420','');
FILE_SCHEMA(('CONFIG_CONTROL_DESIGN'));
ENDSEC;
DATA;
#2=DIRECTION('',(0.E0,1.E0,0.E0));
#3=VECTOR('',#2,2.5E0);
#4=CARTESIAN_POINT('',(0.E0,0.E0,-5.E0));
#5=LINE('',#4,#3);
#6=DIRECTION('',(0.E0,1.E0,0.E0));
#7=VECTOR('',#6,2.5E0);
#8=CARTESIAN_POINT('',(0.E0,0.E0,5.E0));
#9=LINE('',#8,#7);
#10=CARTESIAN_POINT('',(0.E0,0.E0,0.E0));
#11=DIRECTION('',(0.E0,1.E0,0.E0));
#12=DIRECTION('',(0.E0,0.E0,-1.E0));
#13=AXIS2_PLACEMENT_3D('',#10,#11,#12);
#15=CARTESIAN_POINT('',(0.E0,0.E0,0.E0));
#16=DIRECTION('',(0.E0,-1.E0,0.E0));
#17=DIRECTION('',(0.E0,0.E0,-1.E0));
#18=AXIS2_PLACEMENT_3D('',#15,#16,#17);
#20=CARTESIAN_POINT('',(0.E0,2.5E0,0.E0));
#21=DIRECTION('',(0.E0,-1.E0,0.E0));
#22=DIRECTION('',(0.E0,0.E0,-1.E0));
#23=AXIS2_PLACEMENT_3D('',#20,#21,#22);
#25=CARTESIAN_POINT('',(0.E0,2.5E0,0.E0));
#26=DIRECTION('',(0.E0,1.E0,0.E0));
#27=DIRECTION('',(0.E0,0.E0,-1.E0));
#28=AXIS2_PLACEMENT_3D('',#25,#26,#27);
#30=CARTESIAN_POINT('',(0.E0,2.5E0,0.E0));
#31=DIRECTION('',(0.E0,-1.E0,0.E0));
#32=DIRECTION('',(0.E0,0.E0,-1.E0));
#33=AXIS2_PLACEMENT_3D('',#30,#31,#32);
#35=CARTESIAN_POINT('',(0.E0,2.5E0,0.E0));
#36=DIRECTION('',(0.E0,-1.E0,0.E0));
#37=DIRECTION('',(0.E0,0.E0,1.E0));
#38=AXIS2_PLACEMENT_3D('',#35,#36,#37);
#40=CARTESIAN_POINT('',(-3.835935596941E-10,3.1E0,-4.E0));
#41=DIRECTION('',(1.E0,0.E0,-9.589838992352E-11));
#42=DIRECTION('',(9.589838992352E-11,0.E0,1.E0));
#43=AXIS2_PLACEMENT_3D('',#40,#41,#42);
#45=CARTESIAN_POINT('',(0.E0,3.1E0,0.E0));
#46=DIRECTION('',(0.E0,-1.E0,0.E0));
#47=DIRECTION('',(0.E0,0.E0,-1.E0));
#48=AXIS2_PLACEMENT_3D('',#45,#46,#47);
#50=CARTESIAN_POINT('',(0.E0,5.4E0,0.E0));
#51=DIRECTION('',(0.E0,-1.E0,0.E0));
#52=DIRECTION('',(0.E0,0.E0,-1.E0));
#53=AXIS2_PLACEMENT_3D('',#50,#51,#52);
#55=CARTESIAN_POINT('',(0.E0,3.1E0,0.E0));
#56=DIRECTION('',(0.E0,-1.E0,0.E0));
#57=DIRECTION('',(0.E0,0.E0,1.E0));
#58=AXIS2_PLACEMENT_3D('',#55,#56,#57);
#60=DIRECTION('',(2.910904458297E-11,1.E0,0.E0));
#61=VECTOR('',#60,2.3E0);
#62=CARTESIAN_POINT('',(-1.061657356933E-11,3.1E0,-3.4E0));
#63=LINE('',#62,#61);
#64=CARTESIAN_POINT('',(0.E0,5.4E0,0.E0));
#65=DIRECTION('',(0.E0,-1.E0,0.E0));
#66=DIRECTION('',(0.E0,0.E0,1.E0));
#67=AXIS2_PLACEMENT_3D('',#64,#65,#66);
#69=DIRECTION('',(-2.910952427172E-11,1.E0,0.E0));
#70=VECTOR('',#69,2.3E0);
#71=CARTESIAN_POINT('',(1.061683723573E-11,3.1E0,3.4E0));
#72=LINE('',#71,#70);
#73=CARTESIAN_POINT('',(3.835930600937E-10,3.1E0,4.E0));
#74=DIRECTION('',(-1.E0,0.E0,9.589826502343E-11));
#75=DIRECTION('',(-9.589826502343E-11,0.E0,-1.E0));
#76=AXIS2_PLACEMENT_3D('',#73,#74,#75);
#78=CARTESIAN_POINT('',(3.602954462556E-10,5.4E0,4.E0));
#79=DIRECTION('',(-1.E0,0.E0,9.007386156390E-11));
#80=DIRECTION('',(0.E0,1.E0,-2.578603996994E-11));
#81=AXIS2_PLACEMENT_3D('',#78,#79,#80);
#83=CARTESIAN_POINT('',(0.E0,6.E0,0.E0));
#84=DIRECTION('',(0.E0,-1.E0,0.E0));
#85=DIRECTION('',(0.E0,0.E0,-1.E0));
#86=AXIS2_PLACEMENT_3D('',#83,#84,#85);
#88=CARTESIAN_POINT('',(0.E0,6.E0,0.E0));
#89=DIRECTION('',(0.E0,-1.E0,0.E0));
#90=DIRECTION('',(0.E0,0.E0,1.E0));
#91=AXIS2_PLACEMENT_3D('',#88,#89,#90);
#93=DIRECTION('',(0.E0,1.E0,0.E0));
#94=VECTOR('',#93,3.9E1);
#95=CARTESIAN_POINT('',(0.E0,6.E0,-5.E0));
#96=LINE('',#95,#94);
#97=DIRECTION('',(0.E0,1.E0,0.E0));
#98=VECTOR('',#97,3.9E1);
#99=CARTESIAN_POINT('',(0.E0,6.E0,5.E0));
#100=LINE('',#99,#98);
#101=CARTESIAN_POINT('',(0.E0,6.E0,0.E0));
#102=DIRECTION('',(0.E0,1.E0,0.E0));
#103=DIRECTION('',(0.E0,0.E0,-1.E0));
#104=AXIS2_PLACEMENT_3D('',#101,#102,#103);
#106=CARTESIAN_POINT('',(0.E0,6.E0,0.E0));
#107=DIRECTION('',(0.E0,-1.E0,0.E0));
#108=DIRECTION('',(0.E0,0.E0,-1.E0));
#109=AXIS2_PLACEMENT_3D('',#106,#107,#108);
#111=CARTESIAN_POINT('',(0.E0,4.5E1,0.E0));
#112=DIRECTION('',(0.E0,1.E0,0.E0));
#113=DIRECTION('',(0.E0,0.E0,-1.E0));
#114=AXIS2_PLACEMENT_3D('',#111,#112,#113);
#116=CARTESIAN_POINT('',(0.E0,4.5E1,0.E0));
#117=DIRECTION('',(0.E0,-1.E0,0.E0));
#118=DIRECTION('',(0.E0,0.E0,-1.E0));
#119=AXIS2_PLACEMENT_3D('',#116,#117,#118);
#121=CARTESIAN_POINT('',(-3.602976389461E-10,5.4E0,-4.E0));
#122=DIRECTION('',(1.E0,0.E0,-9.007440973652E-11));
#123=DIRECTION('',(0.E0,1.E0,2.578678011863E-11));
#124=AXIS2_PLACEMENT_3D('',#121,#122,#123);
#126=CARTESIAN_POINT('',(0.E0,0.E0,-5.E0));
#127=CARTESIAN_POINT('',(0.E0,2.5E0,-5.E0));
#128=VERTEX_POINT('',#126);
#129=VERTEX_POINT('',#127);
#130=CARTESIAN_POINT('',(0.E0,6.E0,-5.E0));
#131=CARTESIAN_POINT('',(0.E0,4.5E1,-5.E0));
#132=VERTEX_POINT('',#130);
#133=VERTEX_POINT('',#131);
#134=CARTESIAN_POINT('',(0.E0,0.E0,5.E0));
#135=CARTESIAN_POINT('',(0.E0,2.5E0,5.E0));
#136=VERTEX_POINT('',#134);
#137=VERTEX_POINT('',#135);
#138=CARTESIAN_POINT('',(0.E0,6.E0,5.E0));
#139=CARTESIAN_POINT('',(0.E0,4.5E1,5.E0));
#140=VERTEX_POINT('',#138);
#141=VERTEX_POINT('',#139);
#142=CARTESIAN_POINT('',(0.E0,3.1E0,-3.4E0));
#143=CARTESIAN_POINT('',(0.E0,3.1E0,3.4E0));
#144=VERTEX_POINT('',#142);
#145=VERTEX_POINT('',#143);
#146=CARTESIAN_POINT('',(0.E0,2.5E0,-4.E0));
#147=CARTESIAN_POINT('',(0.E0,2.5E0,4.E0));
#148=VERTEX_POINT('',#146);
#149=VERTEX_POINT('',#147);
#150=CARTESIAN_POINT('',(5.633422897149E-11,5.4E0,-3.4E0));
#151=VERTEX_POINT('',#150);
#152=CARTESIAN_POINT('',(-5.633506858922E-11,5.4E0,3.4E0));
#153=VERTEX_POINT('',#152);
#154=CARTESIAN_POINT('',(0.E0,6.E0,-4.E0));
#155=CARTESIAN_POINT('',(0.E0,6.E0,4.E0));
#156=VERTEX_POINT('',#154);
#157=VERTEX_POINT('',#155);
#158=CARTESIAN_POINT('',(0.E0,0.E0,0.E0));
#159=DIRECTION('',(0.E0,-1.E0,0.E0));
#160=DIRECTION('',(0.E0,0.E0,1.E0));
#161=AXIS2_PLACEMENT_3D('',#158,#159,#160);
#162=PLANE('',#161);
#164=ORIENTED_EDGE('',*,*,#163,.T.);
#166=ORIENTED_EDGE('',*,*,#165,.F.);
#167=EDGE_LOOP('',(#164,#166));
#168=FACE_OUTER_BOUND('',#167,.F.);
#169=ADVANCED_FACE('',(#168),#162,.T.);
#170=CARTESIAN_POINT('',(0.E0,4.725E1,0.E0));
#171=DIRECTION('',(0.E0,-1.E0,0.E0));
#172=DIRECTION('',(0.E0,0.E0,1.E0));
#173=AXIS2_PLACEMENT_3D('',#170,#171,#172);
#174=CYLINDRICAL_SURFACE('',#173,5.E0);
#176=ORIENTED_EDGE('',*,*,#175,.T.);
#178=ORIENTED_EDGE('',*,*,#177,.T.);
#180=ORIENTED_EDGE('',*,*,#179,.F.);
#181=ORIENTED_EDGE('',*,*,#163,.F.);
#182=EDGE_LOOP('',(#176,#178,#180,#181));
#183=FACE_OUTER_BOUND('',#182,.F.);
#184=ADVANCED_FACE('',(#183),#174,.T.);
#185=CARTESIAN_POINT('',(0.E0,4.725E1,0.E0));
#186=DIRECTION('',(0.E0,-1.E0,0.E0));
#187=DIRECTION('',(0.E0,0.E0,1.E0));
#188=AXIS2_PLACEMENT_3D('',#185,#186,#187);
#189=CYLINDRICAL_SURFACE('',#188,5.E0);
#190=ORIENTED_EDGE('',*,*,#175,.F.);
#191=ORIENTED_EDGE('',*,*,#165,.T.);
#192=ORIENTED_EDGE('',*,*,#179,.T.);
#194=ORIENTED_EDGE('',*,*,#193,.F.);
#195=EDGE_LOOP('',(#190,#191,#192,#194));
#196=FACE_OUTER_BOUND('',#195,.F.);
#197=ADVANCED_FACE('',(#196),#189,.T.);
#198=CARTESIAN_POINT('',(0.E0,2.5E0,0.E0));
#199=DIRECTION('',(0.E0,-1.E0,0.E0));
#200=DIRECTION('',(0.E0,0.E0,1.E0));
#201=AXIS2_PLACEMENT_3D('',#198,#199,#200);
#202=PLANE('',#201);
#203=ORIENTED_EDGE('',*,*,#193,.T.);
#204=ORIENTED_EDGE('',*,*,#177,.F.);
#205=EDGE_LOOP('',(#203,#204));
#206=FACE_OUTER_BOUND('',#205,.F.);
#208=ORIENTED_EDGE('',*,*,#207,.F.);
#210=ORIENTED_EDGE('',*,*,#209,.F.);
#211=EDGE_LOOP('',(#208,#210));
#212=FACE_BOUND('',#211,.F.);
#213=ADVANCED_FACE('',(#206,#212),#202,.F.);
#214=CARTESIAN_POINT('',(0.E0,3.1E0,0.E0));
#215=DIRECTION('',(0.E0,-1.E0,0.E0));
#216=DIRECTION('',(-2.235910703271E-2,0.E0,-9.997500039173E-1));
#217=AXIS2_PLACEMENT_3D('',#214,#215,#216);
#218=TOROIDAL_SURFACE('',#217,4.E0,6.E-1);
#220=ORIENTED_EDGE('',*,*,#219,.F.);
#222=ORIENTED_EDGE('',*,*,#221,.T.);
#223=ORIENTED_EDGE('',*,*,#207,.T.);
#225=ORIENTED_EDGE('',*,*,#224,.F.);
#226=EDGE_LOOP('',(#220,#222,#223,#225));
#227=FACE_OUTER_BOUND('',#226,.F.);
#228=ADVANCED_FACE('',(#227),#218,.F.);
#229=CARTESIAN_POINT('',(0.E0,4.725E1,0.E0));
#230=DIRECTION('',(0.E0,-1.E0,0.E0));
#231=DIRECTION('',(0.E0,0.E0,1.E0));
#232=AXIS2_PLACEMENT_3D('',#229,#230,#231);
#233=CYLINDRICAL_SURFACE('',#232,3.4E0);
#234=ORIENTED_EDGE('',*,*,#219,.T.);
#236=ORIENTED_EDGE('',*,*,#235,.T.);
#238=ORIENTED_EDGE('',*,*,#237,.F.);
#240=ORIENTED_EDGE('',*,*,#239,.F.);
#241=EDGE_LOOP('',(#234,#236,#238,#240));
#242=FACE_OUTER_BOUND('',#241,.F.);
#243=ADVANCED_FACE('',(#242),#233,.T.);
#244=CARTESIAN_POINT('',(0.E0,4.725E1,0.E0));
#245=DIRECTION('',(0.E0,-1.E0,0.E0));
#246=DIRECTION('',(0.E0,0.E0,1.E0));
#247=AXIS2_PLACEMENT_3D('',#244,#245,#246);
#248=CYLINDRICAL_SURFACE('',#247,3.4E0);
#250=ORIENTED_EDGE('',*,*,#249,.T.);
#251=ORIENTED_EDGE('',*,*,#239,.T.);
#253=ORIENTED_EDGE('',*,*,#252,.F.);
#254=ORIENTED_EDGE('',*,*,#235,.F.);
#255=EDGE_LOOP('',(#250,#251,#253,#254));
#256=FACE_OUTER_BOUND('',#255,.F.);
#257=ADVANCED_FACE('',(#256),#248,.T.);
#258=CARTESIAN_POINT('',(0.E0,3.1E0,0.E0));
#259=DIRECTION('',(0.E0,-1.E0,0.E0));
#260=DIRECTION('',(2.235910703271E-2,0.E0,9.997500039173E-1));
#261=AXIS2_PLACEMENT_3D('',#258,#259,#260);
#262=TOROIDAL_SURFACE('',#261,4.E0,6.E-1);
#263=ORIENTED_EDGE('',*,*,#249,.F.);
#264=ORIENTED_EDGE('',*,*,#224,.T.);
#265=ORIENTED_EDGE('',*,*,#209,.T.);
#266=ORIENTED_EDGE('',*,*,#221,.F.);
#267=EDGE_LOOP('',(#263,#264,#265,#266));
#268=FACE_OUTER_BOUND('',#267,.F.);
#269=ADVANCED_FACE('',(#268),#262,.F.);
#270=CARTESIAN_POINT('',(0.E0,5.4E0,0.E0));
#271=DIRECTION('',(0.E0,-1.E0,0.E0));
#272=DIRECTION('',(2.133053485228E-2,0.E0,9.997724782584E-1));
#273=AXIS2_PLACEMENT_3D('',#270,#271,#272);
#274=TOROIDAL_SURFACE('',#273,4.E0,6.E-1);
#276=ORIENTED_EDGE('',*,*,#275,.F.);
#278=ORIENTED_EDGE('',*,*,#277,.T.);
#279=ORIENTED_EDGE('',*,*,#252,.T.);
#281=ORIENTED_EDGE('',*,*,#280,.F.);
#282=EDGE_LOOP('',(#276,#278,#279,#281));
#283=FACE_OUTER_BOUND('',#282,.F.);
#284=ADVANCED_FACE('',(#283),#274,.F.);
#285=CARTESIAN_POINT('',(0.E0,6.E0,0.E0));
#286=DIRECTION('',(0.E0,-1.E0,0.E0));
#287=DIRECTION('',(0.E0,0.E0,1.E0));
#288=AXIS2_PLACEMENT_3D('',#285,#286,#287);
#289=PLANE('',#288);
#291=ORIENTED_EDGE('',*,*,#290,.T.);
#293=ORIENTED_EDGE('',*,*,#292,.F.);
#294=EDGE_LOOP('',(#291,#293));
#295=FACE_OUTER_BOUND('',#294,.F.);
#297=ORIENTED_EDGE('',*,*,#296,.T.);
#298=ORIENTED_EDGE('',*,*,#275,.T.);
#299=EDGE_LOOP('',(#297,#298));
#300=FACE_BOUND('',#299,.F.);
#301=ADVANCED_FACE('',(#295,#300),#289,.T.);
#302=CARTESIAN_POINT('',(0.E0,4.725E1,0.E0));
#303=DIRECTION('',(0.E0,-1.E0,0.E0));
#304=DIRECTION('',(0.E0,0.E0,1.E0));
#305=AXIS2_PLACEMENT_3D('',#302,#303,#304);
#306=CYLINDRICAL_SURFACE('',#305,5.E0);
#308=ORIENTED_EDGE('',*,*,#307,.T.);
#310=ORIENTED_EDGE('',*,*,#309,.T.);
#312=ORIENTED_EDGE('',*,*,#311,.F.);
#313=ORIENTED_EDGE('',*,*,#290,.F.);
#314=EDGE_LOOP('',(#308,#310,#312,#313));
#315=FACE_OUTER_BOUND('',#314,.F.);
#316=ADVANCED_FACE('',(#315),#306,.T.);
#317=CARTESIAN_POINT('',(0.E0,4.725E1,0.E0));
#318=DIRECTION('',(0.E0,-1.E0,0.E0));
#319=DIRECTION('',(0.E0,0.E0,1.E0));
#320=AXIS2_PLACEMENT_3D('',#317,#318,#319);
#321=CYLINDRICAL_SURFACE('',#320,5.E0);
#322=ORIENTED_EDGE('',*,*,#307,.F.);
#323=ORIENTED_EDGE('',*,*,#292,.T.);
#324=ORIENTED_EDGE('',*,*,#311,.T.);
#326=ORIENTED_EDGE('',*,*,#325,.F.);
#327=EDGE_LOOP('',(#322,#323,#324,#326));
#328=FACE_OUTER_BOUND('',#327,.F.);
#329=ADVANCED_FACE('',(#328),#321,.T.);
#330=CARTESIAN_POINT('',(0.E0,4.5E1,0.E0));
#331=DIRECTION('',(0.E0,-1.E0,0.E0));
#332=DIRECTION('',(0.E0,0.E0,1.E0));
#333=AXIS2_PLACEMENT_3D('',#330,#331,#332);
#334=PLANE('',#333);
#335=ORIENTED_EDGE('',*,*,#309,.F.);
#336=ORIENTED_EDGE('',*,*,#325,.T.);
#337=EDGE_LOOP('',(#335,#336));
#338=FACE_OUTER_BOUND('',#337,.F.);
#339=ADVANCED_FACE('',(#338),#334,.F.);
#340=CARTESIAN_POINT('',(0.E0,5.4E0,0.E0));
#341=DIRECTION('',(0.E0,-1.E0,0.E0));
#342=DIRECTION('',(-2.133053485228E-2,0.E0,-9.997724782584E-1));
#343=AXIS2_PLACEMENT_3D('',#340,#341,#342);
#344=TOROIDAL_SURFACE('',#343,4.E0,6.E-1);
#345=ORIENTED_EDGE('',*,*,#296,.F.);
#346=ORIENTED_EDGE('',*,*,#280,.T.);
#347=ORIENTED_EDGE('',*,*,#237,.T.);
#348=ORIENTED_EDGE('',*,*,#277,.F.);
#349=EDGE_LOOP('',(#345,#346,#347,#348));
#350=FACE_OUTER_BOUND('',#349,.F.);
#351=ADVANCED_FACE('',(#350),#344,.F.);
#352=CLOSED_SHELL('',(#169,#184,#197,#213,#228,#243,#257,#269,#284,#301,#316,
#329,#339,#351));
#353=MANIFOLD_SOLID_BREP('',#352);
#355=DIMENSIONAL_EXPONENTS(0.E0,0.E0,0.E0,0.E0,0.E0,0.E0,0.E0);
#357=PLANE_ANGLE_MEASURE_WITH_UNIT(PLANE_ANGLE_MEASURE(1.745329251994E-2),#356);
#358=(CONVERSION_BASED_UNIT('DEGREE',#357)NAMED_UNIT(*)PLANE_ANGLE_UNIT());
#360=UNCERTAINTY_MEASURE_WITH_UNIT(LENGTH_MEASURE(4.716801886406E-3),#354,
'closure',
'Maximum model space distance between geometric entities at asserted connectivities');
#361=(GEOMETRIC_REPRESENTATION_CONTEXT(3)GLOBAL_UNCERTAINTY_ASSIGNED_CONTEXT((
#360))GLOBAL_UNIT_ASSIGNED_CONTEXT((#354,#358,#359))REPRESENTATION_CONTEXT
('ID1','3'));
#363=APPLICATION_CONTEXT(
'CONFIGURATION CONTROLLED 3D DESIGNS OF MECHANICAL PARTS AND ASSEMBLIES');
#364=APPLICATION_PROTOCOL_DEFINITION('international standard',
'config_control_design',1994,#363);
#365=DESIGN_CONTEXT('',#363,'design');
#366=MECHANICAL_CONTEXT('',#363,'mechanical');
#367=PRODUCT('PION_V4','PION_V4','NOT SPECIFIED',(#366));
#368=PRODUCT_DEFINITION_FORMATION_WITH_SPECIFIED_SOURCE('13','LAST_VERSION',
#367,.MADE.);
#372=PRODUCT_CATEGORY('part','');
#373=PRODUCT_RELATED_PRODUCT_CATEGORY('detail','',(#367));
#374=PRODUCT_CATEGORY_RELATIONSHIP('','',#372,#373);
#375=SECURITY_CLASSIFICATION_LEVEL('unclassified');
#376=SECURITY_CLASSIFICATION('','',#375);
#377=CC_DESIGN_SECURITY_CLASSIFICATION(#376,(#368));
#378=APPROVAL_STATUS('approved');
#379=APPROVAL(#378,'');
#380=CC_DESIGN_APPROVAL(#379,(#376,#368,#369));
#381=CALENDAR_DATE(120,29,1);
#382=COORDINATED_UNIVERSAL_TIME_OFFSET(1,0,.AHEAD.);
#383=LOCAL_TIME(10,25,4.9E1,#382);
#384=DATE_AND_TIME(#381,#383);
#385=APPROVAL_DATE_TIME(#384,#379);
#386=DATE_TIME_ROLE('creation_date');
#387=CC_DESIGN_DATE_AND_TIME_ASSIGNMENT(#384,#386,(#369));
#388=DATE_TIME_ROLE('classification_date');
#389=CC_DESIGN_DATE_AND_TIME_ASSIGNMENT(#384,#388,(#376));
#390=PERSON('UNSPECIFIED','UNSPECIFIED',$,$,$,$);
#391=ORGANIZATION('UNSPECIFIED','UNSPECIFIED','UNSPECIFIED');
#392=PERSON_AND_ORGANIZATION(#390,#391);
#393=APPROVAL_ROLE('approver');
#394=APPROVAL_PERSON_ORGANIZATION(#392,#379,#393);
#395=PERSON_AND_ORGANIZATION_ROLE('creator');
#396=CC_DESIGN_PERSON_AND_ORGANIZATION_ASSIGNMENT(#392,#395,(#368,#369));
#397=PERSON_AND_ORGANIZATION_ROLE('design_supplier');
#398=CC_DESIGN_PERSON_AND_ORGANIZATION_ASSIGNMENT(#392,#397,(#368));
#399=PERSON_AND_ORGANIZATION_ROLE('classification_officer');
#400=CC_DESIGN_PERSON_AND_ORGANIZATION_ASSIGNMENT(#392,#399,(#376));
#401=PERSON_AND_ORGANIZATION_ROLE('design_owner');
#402=CC_DESIGN_PERSON_AND_ORGANIZATION_ASSIGNMENT(#392,#401,(#367));
#14=CIRCLE('',#13,5.E0);
#19=CIRCLE('',#18,5.E0);
#24=CIRCLE('',#23,5.E0);
#29=CIRCLE('',#28,5.E0);
#34=CIRCLE('',#33,4.E0);
#39=CIRCLE('',#38,4.E0);
#44=CIRCLE('',#43,6.E-1);
#49=CIRCLE('',#48,3.4E0);
#54=CIRCLE('',#53,3.4E0);
#59=CIRCLE('',#58,3.4E0);
#68=CIRCLE('',#67,3.4E0);
#77=CIRCLE('',#76,6.E-1);
#82=CIRCLE('',#81,6.E-1);
#87=CIRCLE('',#86,4.E0);
#92=CIRCLE('',#91,4.E0);
#105=CIRCLE('',#104,5.E0);
#110=CIRCLE('',#109,5.E0);
#115=CIRCLE('',#114,5.E0);
#120=CIRCLE('',#119,5.E0);
#125=CIRCLE('',#124,6.E-1);
#163=EDGE_CURVE('',#128,#136,#14,.T.);
#165=EDGE_CURVE('',#128,#136,#19,.T.);
#175=EDGE_CURVE('',#128,#129,#5,.T.);
#177=EDGE_CURVE('',#129,#137,#29,.T.);
#179=EDGE_CURVE('',#136,#137,#9,.T.);
#193=EDGE_CURVE('',#129,#137,#24,.T.);
#207=EDGE_CURVE('',#148,#149,#34,.T.);
#209=EDGE_CURVE('',#149,#148,#39,.T.);
#219=EDGE_CURVE('',#144,#145,#49,.T.);
#221=EDGE_CURVE('',#144,#148,#44,.T.);
#224=EDGE_CURVE('',#145,#149,#77,.T.);
#235=EDGE_CURVE('',#145,#153,#72,.T.);
#237=EDGE_CURVE('',#151,#153,#54,.T.);
#239=EDGE_CURVE('',#144,#151,#63,.T.);
#249=EDGE_CURVE('',#145,#144,#59,.T.);
#252=EDGE_CURVE('',#153,#151,#68,.T.);
#275=EDGE_CURVE('',#157,#156,#92,.T.);
#277=EDGE_CURVE('',#157,#153,#82,.T.);
#280=EDGE_CURVE('',#156,#151,#125,.T.);
#290=EDGE_CURVE('',#132,#140,#105,.T.);
#292=EDGE_CURVE('',#132,#140,#110,.T.);
#296=EDGE_CURVE('',#156,#157,#87,.T.);
#307=EDGE_CURVE('',#132,#133,#96,.T.);
#309=EDGE_CURVE('',#133,#141,#115,.T.);
#311=EDGE_CURVE('',#140,#141,#100,.T.);
#325=EDGE_CURVE('',#133,#141,#120,.T.);
#354=(LENGTH_UNIT()NAMED_UNIT(*)SI_UNIT(.MILLI.,.METRE.));
#356=(NAMED_UNIT(*)PLANE_ANGLE_UNIT()SI_UNIT($,.RADIAN.));
#359=(NAMED_UNIT(*)SI_UNIT($,.STERADIAN.)SOLID_ANGLE_UNIT());
#362=ADVANCED_BREP_SHAPE_REPRESENTATION('',(#353),#361);
#369=PRODUCT_DEFINITION('design','',#368,#365);
#370=PRODUCT_DEFINITION_SHAPE('','SHAPE FOR PION_V4.',#369);
#371=SHAPE_DEFINITION_REPRESENTATION(#370,#362);
ENDSEC;
END-ISO-10303-21;
