ISO-10303-21;
HEADER;
FILE_DESCRIPTION (( 'STEP AP214' ),
    '1' );
FILE_NAME ('Biellette 2.STEP',
    '2020-01-14T19:40:03',
    ( 'Olivier' ),
    ( 'Microsoft' ),
    'SwSTEP 2.0',
    'SolidWorks 2010',
    '' );
FILE_SCHEMA (( 'AUTOMOTIVE_DESIGN' ));
ENDSEC;

DATA;
#1 = FACE_OUTER_BOUND ( 'NONE', #74, .T. ) ;
#2 = LINE ( 'NONE', #224, #120 ) ;
#3 = FACE_BOUND ( 'NONE', #33, .T. ) ;
#4 = ORIENTED_EDGE ( 'NONE', *, *, #320, .T. ) ;
#5 = VECTOR ( 'NONE', #278, 1000.000000000000000 ) ;
#6 = ORIENTED_EDGE ( 'NONE', *, *, #326, .T. ) ;
#7 = ORIENTED_EDGE ( 'NONE', *, *, #325, .T. ) ;
#8 = ORIENTED_EDGE ( 'NONE', *, *, #330, .F. ) ;
#9 = ORIENTED_EDGE ( 'NONE', *, *, #323, .F. ) ;
#10 = ORIENTED_EDGE ( 'NONE', *, *, #321, .F. ) ;
#11 = ORIENTED_EDGE ( 'NONE', *, *, #310, .F. ) ;
#12 = SURFACE_STYLE_FILL_AREA ( #221 ) ;
#13 = VECTOR ( 'NONE', #237, 1000.000000000000000 ) ;
#14 = VECTOR ( 'NONE', #268, 1000.000000000000000 ) ;
#15 = VECTOR ( 'NONE', #206, 1000.000000000000000 ) ;
#16 = LINE ( 'NONE', #250, #94 ) ;
#17 = LINE ( 'NONE', #265, #23 ) ;
#18 = VECTOR ( 'NONE', #245, 1000.000000000000000 ) ;
#19 = ORIENTED_EDGE ( 'NONE', *, *, #301, .F. ) ;
#20 = ORIENTED_EDGE ( 'NONE', *, *, #322, .F. ) ;
#21 = LINE ( 'NONE', #277, #5 ) ;
#22 = FACE_OUTER_BOUND ( 'NONE', #86, .T. ) ;
#23 = VECTOR ( 'NONE', #266, 1000.000000000000000 ) ;
#24 = FACE_OUTER_BOUND ( 'NONE', #27, .T. ) ;
#25 = FACE_OUTER_BOUND ( 'NONE', #100, .T. ) ;
#26 = ORIENTED_EDGE ( 'NONE', *, *, #331, .F. ) ;
#27 = EDGE_LOOP ( 'NONE', ( #111, #110, #109, #108 ) ) ;
#28 = EDGE_LOOP ( 'NONE', ( #19, #49, #48, #50 ) ) ;
#29 = EDGE_LOOP ( 'NONE', ( #57, #97 ) ) ;
#30 = LINE ( 'NONE', #283, #77 ) ;
#31 = LINE ( 'NONE', #264, #65 ) ;
#32 = EDGE_LOOP ( 'NONE', ( #103, #102, #101, #53 ) ) ;
#33 = EDGE_LOOP ( 'NONE', ( #73, #98 ) ) ;
#34 = EDGE_LOOP ( 'NONE', ( #59, #64, #11, #20 ) ) ;
#35 = FACE_OUTER_BOUND ( 'NONE', #89, .T. ) ;
#36 = CYLINDRICAL_SURFACE ( 'NONE', #303, 5.000000000000004400 ) ;
#37 = ORIENTED_EDGE ( 'NONE', *, *, #309, .F. ) ;
#38 = EDGE_LOOP ( 'NONE', ( #8, #78 ) ) ;
#39 = ORIENTED_EDGE ( 'NONE', *, *, #316, .T. ) ;
#40 = CYLINDRICAL_SURFACE ( 'NONE', #314, 5.000000000000000900 ) ;
#41 = LINE ( 'NONE', #253, #121 ) ;
#42 =( GEOMETRIC_REPRESENTATION_CONTEXT ( 3 ) GLOBAL_UNCERTAINTY_ASSIGNED_CONTEXT ( ( #137 ) ) GLOBAL_UNIT_ASSIGNED_CONTEXT ( ( #234, #230, #200 ) ) REPRESENTATION_CONTEXT ( 'NONE', 'WORKASPACE' ) );
#43 = LINE ( 'NONE', #193, #15 ) ;
#44 = EDGE_LOOP ( 'NONE', ( #115, #114, #113, #112 ) ) ;
#45 = LINE ( 'NONE', #271, #122 ) ;
#46 = CIRCLE ( 'NONE', #349, 5.000000000000000900 ) ;
#47 = VECTOR ( 'NONE', #276, 1000.000000000000000 ) ;
#48 = ORIENTED_EDGE ( 'NONE', *, *, #322, .T. ) ;
#49 = ORIENTED_EDGE ( 'NONE', *, *, #311, .T. ) ;
#50 = ORIENTED_EDGE ( 'NONE', *, *, #316, .F. ) ;
#51 = FACE_OUTER_BOUND ( 'NONE', #34, .T. ) ;
#52 = ORIENTED_EDGE ( 'NONE', *, *, #310, .T. ) ;
#53 = ORIENTED_EDGE ( 'NONE', *, *, #335, .F. ) ;
#54 = LINE ( 'NONE', #182, #18 ) ;
#55 = FACE_BOUND ( 'NONE', #90, .T. ) ;
#56 = CIRCLE ( 'NONE', #336, 5.000000000000000900 ) ;
#57 = ORIENTED_EDGE ( 'NONE', *, *, #321, .T. ) ;
#58 = VECTOR ( 'NONE', #261, 1000.000000000000000 ) ;
#59 = ORIENTED_EDGE ( 'NONE', *, *, #304, .T. ) ;
#60 = LINE ( 'NONE', #204, #13 ) ;
#61 = ORIENTED_EDGE ( 'NONE', *, *, #333, .T. ) ;
#62 = ORIENTED_EDGE ( 'NONE', *, *, #315, .T. ) ;
#63 = LINE ( 'NONE', #258, #14 ) ;
#64 = ORIENTED_EDGE ( 'NONE', *, *, #301, .T. ) ;
#65 = VECTOR ( 'NONE', #274, 1000.000000000000000 ) ;
#66 = CIRCLE ( 'NONE', #347, 5.000000000000000900 ) ;
#67 = LINE ( 'NONE', #252, #80 ) ;
#68 = LINE ( 'NONE', #260, #58 ) ;
#69 = CIRCLE ( 'NONE', #348, 5.000000000000004400 ) ;
#70 = LINE ( 'NONE', #275, #47 ) ;
#71 = FACE_OUTER_BOUND ( 'NONE', #28, .T. ) ;
#72 = CYLINDRICAL_SURFACE ( 'NONE', #341, 5.000000000000000900 ) ;
#73 = ORIENTED_EDGE ( 'NONE', *, *, #304, .F. ) ;
#74 = EDGE_LOOP ( 'NONE', ( #99, #26, #85, #37 ) ) ;
#75 = CIRCLE ( 'NONE', #339, 5.000000000000000900 ) ;
#76 = VECTOR ( 'NONE', #263, 1000.000000000000000 ) ;
#77 = VECTOR ( 'NONE', #284, 1000.000000000000000 ) ;
#78 = ORIENTED_EDGE ( 'NONE', *, *, #312, .F. ) ;
#79 = LINE ( 'NONE', #262, #76 ) ;
#80 = VECTOR ( 'NONE', #259, 1000.000000000000000 ) ;
#81 = FACE_OUTER_BOUND ( 'NONE', #88, .T. ) ;
#82 = FACE_OUTER_BOUND ( 'NONE', #32, .T. ) ;
#83 = FACE_BOUND ( 'NONE', #38, .T. ) ;
#84 = CYLINDRICAL_SURFACE ( 'NONE', #327, 5.000000000000004400 ) ;
#85 = ORIENTED_EDGE ( 'NONE', *, *, #337, .F. ) ;
#86 = EDGE_LOOP ( 'NONE', ( #107, #106, #104, #105 ) ) ;
#87 = CIRCLE ( 'NONE', #346, 5.000000000000004400 ) ;
#88 = EDGE_LOOP ( 'NONE', ( #4, #118, #116, #117 ) ) ;
#89 = EDGE_LOOP ( 'NONE', ( #119, #7, #10, #9 ) ) ;
#90 = EDGE_LOOP ( 'NONE', ( #52, #39 ) ) ;
#91 = FACE_BOUND ( 'NONE', #29, .T. ) ;
#92 = COLOUR_RGB ( '',0.7921568627450980000, 0.8196078431372548800, 0.9333333333333333500 ) ;
#93 = PRESENTATION_STYLE_ASSIGNMENT (( #188 ) ) ;
#94 = VECTOR ( 'NONE', #251, 1000.000000000000000 ) ;
#95 = ORIENTED_EDGE ( 'NONE', *, *, #319, .T. ) ;
#96 = STYLED_ITEM ( 'NONE', ( #93 ), #138 ) ;
#97 = ORIENTED_EDGE ( 'NONE', *, *, #335, .T. ) ;
#98 = ORIENTED_EDGE ( 'NONE', *, *, #311, .F. ) ;
#99 = ORIENTED_EDGE ( 'NONE', *, *, #320, .F. ) ;
#100 = EDGE_LOOP ( 'NONE', ( #62, #6, #61, #95 ) ) ;
#101 = ORIENTED_EDGE ( 'NONE', *, *, #323, .T. ) ;
#102 = ORIENTED_EDGE ( 'NONE', *, *, #312, .T. ) ;
#103 = ORIENTED_EDGE ( 'NONE', *, *, #325, .F. ) ;
#104 = ORIENTED_EDGE ( 'NONE', *, *, #319, .F. ) ;
#105 = ORIENTED_EDGE ( 'NONE', *, *, #334, .T. ) ;
#106 = ORIENTED_EDGE ( 'NONE', *, *, #332, .F. ) ;
#107 = ORIENTED_EDGE ( 'NONE', *, *, #331, .T. ) ;
#108 = ORIENTED_EDGE ( 'NONE', *, *, #305, .T. ) ;
#109 = ORIENTED_EDGE ( 'NONE', *, *, #333, .F. ) ;
#110 = ORIENTED_EDGE ( 'NONE', *, *, #334, .F. ) ;
#111 = ORIENTED_EDGE ( 'NONE', *, *, #337, .T. ) ;
#112 = ORIENTED_EDGE ( 'NONE', *, *, #324, .T. ) ;
#113 = ORIENTED_EDGE ( 'NONE', *, *, #326, .F. ) ;
#114 = ORIENTED_EDGE ( 'NONE', *, *, #305, .F. ) ;
#115 = ORIENTED_EDGE ( 'NONE', *, *, #309, .T. ) ;
#116 = ORIENTED_EDGE ( 'NONE', *, *, #315, .F. ) ;
#117 = ORIENTED_EDGE ( 'NONE', *, *, #332, .T. ) ;
#118 = ORIENTED_EDGE ( 'NONE', *, *, #324, .F. ) ;
#119 = ORIENTED_EDGE ( 'NONE', *, *, #330, .T. ) ;
#120 = VECTOR ( 'NONE', #222, 1000.000000000000000 ) ;
#121 = VECTOR ( 'NONE', #254, 1000.000000000000000 ) ;
#122 = VECTOR ( 'NONE', #272, 1000.000000000000000 ) ;
#123 = CIRCLE ( 'NONE', #340, 5.000000000000004400 ) ;
#124 = FACE_OUTER_BOUND ( 'NONE', #44, .T. ) ;
#125 = CLOSED_SHELL ( 'NONE', ( #151, #146, #145, #144, #143, #142, #147, #148, #149, #150 ) ) ;
#126 = CIRCLE ( 'NONE', #338, 5.000000000000004400 ) ;
#127 =( GEOMETRIC_REPRESENTATION_CONTEXT ( 3 ) GLOBAL_UNCERTAINTY_ASSIGNED_CONTEXT ( ( #139 ) ) GLOBAL_UNIT_ASSIGNED_CONTEXT ( ( #279, #285, #286 ) ) REPRESENTATION_CONTEXT ( 'NONE', 'WORKASPACE' ) );
#128 = COLOUR_RGB ( '',0.7921568627450980000, 0.8196078431372548800, 0.9333333333333333500 ) ;
#129 = SURFACE_STYLE_FILL_AREA ( #282 ) ;
#130 = PRESENTATION_STYLE_ASSIGNMENT (( #289 ) ) ;
#131 = STYLED_ITEM ( 'NONE', ( #130 ), #140 ) ;
#132 =( GEOMETRIC_REPRESENTATION_CONTEXT ( 3 ) GLOBAL_UNCERTAINTY_ASSIGNED_CONTEXT ( ( #141 ) ) GLOBAL_UNIT_ASSIGNED_CONTEXT ( ( #290, #291, #292 ) ) REPRESENTATION_CONTEXT ( 'NONE', 'WORKASPACE' ) );
#133 = SHAPE_DEFINITION_REPRESENTATION ( #136, #140 ) ;
#134 = PRODUCT ( 'Biellette 2', 'Biellette 2', '', ( #298 ) ) ;
#135 = PRODUCT_DEFINITION_CONTEXT ( 'detailed design', #299, 'design' ) ;
#136 = PRODUCT_DEFINITION_SHAPE ( 'NONE', 'NONE',  #344 ) ;
#137 = UNCERTAINTY_MEASURE_WITH_UNIT (LENGTH_MEASURE( 1.000000000000000100E-005 ), #234, 'distance_accuracy_value', 'NONE');
#138 = MANIFOLD_SOLID_BREP ( 'Boss.-Extru.1', #125 ) ;
#139 = UNCERTAINTY_MEASURE_WITH_UNIT (LENGTH_MEASURE( 1.000000000000000100E-005 ), #279, 'distance_accuracy_value', 'NONE');
#140 = ADVANCED_BREP_SHAPE_REPRESENTATION ( 'Biellette 2', ( #138, #313 ), #127 ) ;
#141 = UNCERTAINTY_MEASURE_WITH_UNIT (LENGTH_MEASURE( 1.000000000000000100E-005 ), #290, 'distance_accuracy_value', 'NONE');
#142 = ADVANCED_FACE ( 'NONE', ( #124 ), #158, .F. ) ;
#143 = ADVANCED_FACE ( 'NONE', ( #81 ), #212, .F. ) ;
#144 = ADVANCED_FACE ( 'NONE', ( #91, #1, #55 ), #175, .T. ) ;
#145 = ADVANCED_FACE ( 'NONE', ( #83, #25, #3 ), #199, .F. ) ;
#146 = ADVANCED_FACE ( 'NONE', ( #35 ), #36, .F. ) ;
#147 = ADVANCED_FACE ( 'NONE', ( #24 ), #232, .F. ) ;
#148 = ADVANCED_FACE ( 'NONE', ( #22 ), #215, .F. ) ;
#149 = ADVANCED_FACE ( 'NONE', ( #82 ), #84, .F. ) ;
#150 = ADVANCED_FACE ( 'NONE', ( #71 ), #40, .F. ) ;
#151 = ADVANCED_FACE ( 'NONE', ( #51 ), #72, .F. ) ;
#152 = VERTEX_POINT ( 'NONE', #244 ) ;
#153 = VERTEX_POINT ( 'NONE', #202 ) ;
#154 = VERTEX_POINT ( 'NONE', #185 ) ;
#155 = VERTEX_POINT ( 'NONE', #177 ) ;
#156 = VERTEX_POINT ( 'NONE', #205 ) ;
#157 = VERTEX_POINT ( 'NONE', #220 ) ;
#158 = PLANE ( 'NONE',  #342 ) ;
#159 = VERTEX_POINT ( 'NONE', #211 ) ;
#160 = FILL_AREA_STYLE_COLOUR ( '', #92 ) ;
#161 = CARTESIAN_POINT ( 'NONE',  ( -374.6972320863725400, 39.49286131155188400, 5.000000000000000000 ) ) ;
#162 = VERTEX_POINT ( 'NONE', #216 ) ;
#163 = DIRECTION ( 'NONE',  ( -0.0000000000000000000, -0.0000000000000000000, -1.000000000000000000 ) ) ;
#164 = VERTEX_POINT ( 'NONE', #231 ) ;
#165 = VERTEX_POINT ( 'NONE', #186 ) ;
#166 = VERTEX_POINT ( 'NONE', #228 ) ;
#167 = VERTEX_POINT ( 'NONE', #233 ) ;
#168 = VERTEX_POINT ( 'NONE', #191 ) ;
#169 = VERTEX_POINT ( 'NONE', #235 ) ;
#170 = VERTEX_POINT ( 'NONE', #223 ) ;
#171 = VERTEX_POINT ( 'NONE', #176 ) ;
#172 = DIRECTION ( 'NONE',  ( 1.000000000000000000, 0.0000000000000000000, 0.0000000000000000000 ) ) ;
#173 = DIRECTION ( 'NONE',  ( -1.000000000000000000, 0.0000000000000000000, 0.0000000000000000000 ) ) ;
#174 = DIRECTION ( 'NONE',  ( -1.000000000000000000, 0.0000000000000000000, 0.0000000000000000000 ) ) ;
#175 = PLANE ( 'NONE',  #308 ) ;
#176 = CARTESIAN_POINT ( 'NONE',  ( 7.802767913627509000, 29.49286131155188400, 5.000000000000000000 ) ) ;
#177 = CARTESIAN_POINT ( 'NONE',  ( -374.6972320863725400, 19.49286131155188100, 5.000000000000000000 ) ) ;
#178 = DIRECTION ( 'NONE',  ( -0.0000000000000000000, -0.0000000000000000000, -1.000000000000000000 ) ) ;
#179 = DIRECTION ( 'NONE',  ( 0.0000000000000000000, 1.000000000000000000, 0.0000000000000000000 ) ) ;
#180 = DIRECTION ( 'NONE',  ( 1.000000000000000000, 0.0000000000000000000, 0.0000000000000000000 ) ) ;
#181 = CARTESIAN_POINT ( 'NONE',  ( -362.1972320863724800, 29.49286131155188400, 5.000000000000000000 ) ) ;
#182 = CARTESIAN_POINT ( 'NONE',  ( -374.6972320863725400, 39.49286131155188400, 5.000000000000000000 ) ) ;
#183 = DIRECTION ( 'NONE',  ( -1.000000000000000000, 0.0000000000000000000, 0.0000000000000000000 ) ) ;
#184 = DIRECTION ( 'NONE',  ( 0.0000000000000000000, 0.0000000000000000000, 1.000000000000000000 ) ) ;
#185 = CARTESIAN_POINT ( 'NONE',  ( 25.30276791362751300, 19.49286131155188100, 5.000000000000000000 ) ) ;
#186 = CARTESIAN_POINT ( 'NONE',  ( -374.6972320863725400, 39.49286131155188400, 0.0000000000000000000 ) ) ;
#187 = CARTESIAN_POINT ( 'NONE',  ( 12.80276791362751100, 29.49286131155188400, 5.000000000000000000 ) ) ;
#188 = SURFACE_STYLE_USAGE ( .BOTH. , #227 ) ;
#189 = DIRECTION ( 'NONE',  ( 0.0000000000000000000, 0.0000000000000000000, 1.000000000000000000 ) ) ;
#190 = DIRECTION ( 'NONE',  ( 0.0000000000000000000, -1.000000000000000000, 0.0000000000000000000 ) ) ;
#191 = CARTESIAN_POINT ( 'NONE',  ( 7.802767913627509000, 29.49286131155188400, 0.0000000000000000000 ) ) ;
#192 = CARTESIAN_POINT ( 'NONE',  ( -374.6972320863725400, 19.49286131155188100, 5.000000000000000000 ) ) ;
#193 = CARTESIAN_POINT ( 'NONE',  ( 25.30276791362751300, 19.49286131155188100, 5.000000000000000000 ) ) ;
#194 = CARTESIAN_POINT ( 'NONE',  ( -374.6972320863725400, 19.49286131155188100, 5.000000000000000000 ) ) ;
#195 = DIRECTION ( 'NONE',  ( 0.0000000000000000000, 0.0000000000000000000, 1.000000000000000000 ) ) ;
#196 = DIRECTION ( 'NONE',  ( 0.0000000000000000000, -0.0000000000000000000, -1.000000000000000000 ) ) ;
#197 = DIRECTION ( 'NONE',  ( 0.0000000000000000000, 0.0000000000000000000, -1.000000000000000000 ) ) ;
#198 = CARTESIAN_POINT ( 'NONE',  ( 25.30276791362751300, 19.49286131155188100, 5.000000000000000000 ) ) ;
#199 = PLANE ( 'NONE',  #317 ) ;
#200 =( NAMED_UNIT ( * ) SI_UNIT ( $, .STERADIAN. ) SOLID_ANGLE_UNIT ( ) );
#201 = DIRECTION ( 'NONE',  ( -1.000000000000000000, 0.0000000000000000000, -0.0000000000000000000 ) ) ;
#202 = CARTESIAN_POINT ( 'NONE',  ( 25.30276791362751300, 39.49286131155188400, 0.0000000000000000000 ) ) ;
#203 = DIRECTION ( 'NONE',  ( 1.000000000000000000, 0.0000000000000000000, 0.0000000000000000000 ) ) ;
#204 = CARTESIAN_POINT ( 'NONE',  ( -374.6972320863725400, 39.49286131155188400, 0.0000000000000000000 ) ) ;
#205 = CARTESIAN_POINT ( 'NONE',  ( -374.6972320863725400, 39.49286131155188400, 5.000000000000000000 ) ) ;
#206 = DIRECTION ( 'NONE',  ( 0.0000000000000000000, 1.000000000000000000, 0.0000000000000000000 ) ) ;
#207 = DIRECTION ( 'NONE',  ( -0.0000000000000000000, -0.0000000000000000000, -1.000000000000000000 ) ) ;
#208 = CARTESIAN_POINT ( 'NONE',  ( 25.30276791362751300, 39.49286131155188400, 0.0000000000000000000 ) ) ;
#209 = DIRECTION ( 'NONE',  ( 0.0000000000000000000, 0.0000000000000000000, -1.000000000000000000 ) ) ;
#210 = CARTESIAN_POINT ( 'NONE',  ( -362.1972320863724800, 29.49286131155188400, 5.000000000000000000 ) ) ;
#211 = CARTESIAN_POINT ( 'NONE',  ( -357.1972320863724800, 29.49286131155188400, 0.0000000000000000000 ) ) ;
#212 = PLANE ( 'NONE',  #343 ) ;
#213 = DIRECTION ( 'NONE',  ( -1.000000000000000000, 0.0000000000000000000, -0.0000000000000000000 ) ) ;
#214 = DIRECTION ( 'NONE',  ( -1.000000000000000000, 0.0000000000000000000, 0.0000000000000000000 ) ) ;
#215 = PLANE ( 'NONE',  #318 ) ;
#216 = CARTESIAN_POINT ( 'NONE',  ( 25.30276791362751300, 19.49286131155188100, 0.0000000000000000000 ) ) ;
#217 = CARTESIAN_POINT ( 'NONE',  ( 25.30276791362751300, 39.49286131155188400, 5.000000000000000000 ) ) ;
#218 = CARTESIAN_POINT ( 'NONE',  ( 12.80276791362751100, 29.49286131155188400, 5.000000000000000000 ) ) ;
#219 = CARTESIAN_POINT ( 'NONE',  ( 12.80276791362751100, 29.49286131155188400, 5.000000000000000000 ) ) ;
#220 = CARTESIAN_POINT ( 'NONE',  ( 25.30276791362751300, 39.49286131155188400, 5.000000000000000000 ) ) ;
#221 = FILL_AREA_STYLE ('',( #160 ) ) ;
#222 = DIRECTION ( 'NONE',  ( -0.0000000000000000000, -0.0000000000000000000, -1.000000000000000000 ) ) ;
#223 = CARTESIAN_POINT ( 'NONE',  ( 17.80276791362751300, 29.49286131155188400, 0.0000000000000000000 ) ) ;
#224 = CARTESIAN_POINT ( 'NONE',  ( 17.80276791362751300, 29.49286131155188400, 5.000000000000000000 ) ) ;
#225 = CARTESIAN_POINT ( 'NONE',  ( 12.80276791362751100, 29.49286131155188400, 5.000000000000000000 ) ) ;
#226 = DIRECTION ( 'NONE',  ( 0.0000000000000000000, 0.0000000000000000000, 1.000000000000000000 ) ) ;
#227 = SURFACE_SIDE_STYLE ('',( #12 ) ) ;
#228 = CARTESIAN_POINT ( 'NONE',  ( -367.1972320863724800, 29.49286131155188400, 5.000000000000000000 ) ) ;
#229 = CARTESIAN_POINT ( 'NONE',  ( -362.1972320863724800, 29.49286131155188400, 5.000000000000000000 ) ) ;
#230 =( NAMED_UNIT ( * ) PLANE_ANGLE_UNIT ( ) SI_UNIT ( $, .RADIAN. ) );
#231 = CARTESIAN_POINT ( 'NONE',  ( -357.1972320863724800, 29.49286131155188400, 5.000000000000000000 ) ) ;
#232 = PLANE ( 'NONE',  #329 ) ;
#233 = CARTESIAN_POINT ( 'NONE',  ( -374.6972320863725400, 19.49286131155188100, 0.0000000000000000000 ) ) ;
#234 =( LENGTH_UNIT ( ) NAMED_UNIT ( * ) SI_UNIT ( .MILLI., .METRE. ) );
#235 = CARTESIAN_POINT ( 'NONE',  ( 17.80276791362751300, 29.49286131155188400, 5.000000000000000000 ) ) ;
#236 = DIRECTION ( 'NONE',  ( 0.0000000000000000000, -0.0000000000000000000, 1.000000000000000000 ) ) ;
#237 = DIRECTION ( 'NONE',  ( -1.000000000000000000, -0.0000000000000000000, -0.0000000000000000000 ) ) ;
#238 = DIRECTION ( 'NONE',  ( 1.000000000000000000, 0.0000000000000000000, 0.0000000000000000000 ) ) ;
#239 = CARTESIAN_POINT ( 'NONE',  ( 12.80276791362751100, 29.49286131155188400, 0.0000000000000000000 ) ) ;
#240 = DIRECTION ( 'NONE',  ( -0.0000000000000000000, -0.0000000000000000000, -1.000000000000000000 ) ) ;
#241 = DIRECTION ( 'NONE',  ( -1.000000000000000000, 0.0000000000000000000, 0.0000000000000000000 ) ) ;
#242 = DIRECTION ( 'NONE',  ( 1.000000000000000000, 0.0000000000000000000, 0.0000000000000000000 ) ) ;
#243 = DIRECTION ( 'NONE',  ( 0.0000000000000000000, 0.0000000000000000000, -1.000000000000000000 ) ) ;
#244 = CARTESIAN_POINT ( 'NONE',  ( -367.1972320863724800, 29.49286131155188400, 0.0000000000000000000 ) ) ;
#245 = DIRECTION ( 'NONE',  ( -0.0000000000000000000, -0.0000000000000000000, -1.000000000000000000 ) ) ;
#246 = DIRECTION ( 'NONE',  ( 0.0000000000000000000, 0.0000000000000000000, 1.000000000000000000 ) ) ;
#247 = CARTESIAN_POINT ( 'NONE',  ( 12.80276791362751100, 29.49286131155188400, 0.0000000000000000000 ) ) ;
#248 = DIRECTION ( 'NONE',  ( 0.0000000000000000000, 0.0000000000000000000, 1.000000000000000000 ) ) ;
#249 = DIRECTION ( 'NONE',  ( 1.000000000000000000, 0.0000000000000000000, 0.0000000000000000000 ) ) ;
#250 = CARTESIAN_POINT ( 'NONE',  ( -374.6972320863725400, 19.49286131155188100, 5.000000000000000000 ) ) ;
#251 = DIRECTION ( 'NONE',  ( 1.000000000000000000, 0.0000000000000000000, 0.0000000000000000000 ) ) ;
#252 = CARTESIAN_POINT ( 'NONE',  ( 7.802767913627509000, 29.49286131155188400, 5.000000000000000000 ) ) ;
#253 = CARTESIAN_POINT ( 'NONE',  ( 25.30276791362751300, 19.49286131155188100, 0.0000000000000000000 ) ) ;
#254 = DIRECTION ( 'NONE',  ( 0.0000000000000000000, 1.000000000000000000, 0.0000000000000000000 ) ) ;
#255 = CARTESIAN_POINT ( 'NONE',  ( -362.1972320863724800, 29.49286131155188400, 0.0000000000000000000 ) ) ;
#256 = DIRECTION ( 'NONE',  ( 0.0000000000000000000, 0.0000000000000000000, 1.000000000000000000 ) ) ;
#257 = DIRECTION ( 'NONE',  ( 1.000000000000000000, 0.0000000000000000000, 0.0000000000000000000 ) ) ;
#258 = CARTESIAN_POINT ( 'NONE',  ( -374.6972320863725400, 39.49286131155188400, 5.000000000000000000 ) ) ;
#259 = DIRECTION ( 'NONE',  ( -0.0000000000000000000, -0.0000000000000000000, -1.000000000000000000 ) ) ;
#260 = CARTESIAN_POINT ( 'NONE',  ( -367.1972320863724800, 29.49286131155188400, 5.000000000000000000 ) ) ;
#261 = DIRECTION ( 'NONE',  ( -0.0000000000000000000, -0.0000000000000000000, -1.000000000000000000 ) ) ;
#262 = CARTESIAN_POINT ( 'NONE',  ( 25.30276791362751300, 39.49286131155188400, 5.000000000000000000 ) ) ;
#263 = DIRECTION ( 'NONE',  ( -0.0000000000000000000, -0.0000000000000000000, -1.000000000000000000 ) ) ;
#264 = CARTESIAN_POINT ( 'NONE',  ( 25.30276791362751300, 19.49286131155188100, 5.000000000000000000 ) ) ;
#265 = CARTESIAN_POINT ( 'NONE',  ( -357.1972320863724800, 29.49286131155188400, 5.000000000000000000 ) ) ;
#266 = DIRECTION ( 'NONE',  ( -0.0000000000000000000, -0.0000000000000000000, -1.000000000000000000 ) ) ;
#267 = CARTESIAN_POINT ( 'NONE',  ( -362.1972320863724800, 29.49286131155188400, 5.000000000000000000 ) ) ;
#268 = DIRECTION ( 'NONE',  ( -1.000000000000000000, -0.0000000000000000000, -0.0000000000000000000 ) ) ;
#269 = DIRECTION ( 'NONE',  ( 0.0000000000000000000, 0.0000000000000000000, 1.000000000000000000 ) ) ;
#270 = DIRECTION ( 'NONE',  ( 1.000000000000000000, 0.0000000000000000000, 0.0000000000000000000 ) ) ;
#271 = CARTESIAN_POINT ( 'NONE',  ( -374.6972320863725400, 19.49286131155188100, 0.0000000000000000000 ) ) ;
#272 = DIRECTION ( 'NONE',  ( 1.000000000000000000, 0.0000000000000000000, 0.0000000000000000000 ) ) ;
#273 = CARTESIAN_POINT ( 'NONE',  ( -362.1972320863724800, 29.49286131155188400, 0.0000000000000000000 ) ) ;
#274 = DIRECTION ( 'NONE',  ( -0.0000000000000000000, -0.0000000000000000000, -1.000000000000000000 ) ) ;
#275 = CARTESIAN_POINT ( 'NONE',  ( -374.6972320863725400, 19.49286131155188100, 5.000000000000000000 ) ) ;
#276 = DIRECTION ( 'NONE',  ( -0.0000000000000000000, -1.000000000000000000, -0.0000000000000000000 ) ) ;
#277 = CARTESIAN_POINT ( 'NONE',  ( -374.6972320863725400, 19.49286131155188100, 5.000000000000000000 ) ) ;
#278 = DIRECTION ( 'NONE',  ( -0.0000000000000000000, -0.0000000000000000000, -1.000000000000000000 ) ) ;
#279 =( LENGTH_UNIT ( ) NAMED_UNIT ( * ) SI_UNIT ( .MILLI., .METRE. ) );
#280 = DIRECTION ( 'NONE',  ( 0.0000000000000000000, 0.0000000000000000000, 1.000000000000000000 ) ) ;
#281 = DIRECTION ( 'NONE',  ( 1.000000000000000000, 0.0000000000000000000, 0.0000000000000000000 ) ) ;
#282 = FILL_AREA_STYLE ('',( #287 ) ) ;
#283 = CARTESIAN_POINT ( 'NONE',  ( -374.6972320863725400, 19.49286131155188100, 0.0000000000000000000 ) ) ;
#284 = DIRECTION ( 'NONE',  ( -0.0000000000000000000, -1.000000000000000000, -0.0000000000000000000 ) ) ;
#285 =( NAMED_UNIT ( * ) PLANE_ANGLE_UNIT ( ) SI_UNIT ( $, .RADIAN. ) );
#286 =( NAMED_UNIT ( * ) SI_UNIT ( $, .STERADIAN. ) SOLID_ANGLE_UNIT ( ) );
#287 = FILL_AREA_STYLE_COLOUR ( '', #128 ) ;
#288 = SURFACE_SIDE_STYLE ('',( #129 ) ) ;
#289 = SURFACE_STYLE_USAGE ( .BOTH. , #288 ) ;
#290 =( LENGTH_UNIT ( ) NAMED_UNIT ( * ) SI_UNIT ( .MILLI., .METRE. ) );
#291 =( NAMED_UNIT ( * ) PLANE_ANGLE_UNIT ( ) SI_UNIT ( $, .RADIAN. ) );
#292 =( NAMED_UNIT ( * ) SI_UNIT ( $, .STERADIAN. ) SOLID_ANGLE_UNIT ( ) );
#293 = CARTESIAN_POINT ( 'NONE',  ( 0.0000000000000000000, 0.0000000000000000000, 0.0000000000000000000 ) ) ;
#294 = DIRECTION ( 'NONE',  ( 0.0000000000000000000, 0.0000000000000000000, 1.000000000000000000 ) ) ;
#295 = DIRECTION ( 'NONE',  ( 1.000000000000000000, 0.0000000000000000000, 0.0000000000000000000 ) ) ;
#296 = APPLICATION_CONTEXT ( 'automotive_design' ) ;
#297 = APPLICATION_PROTOCOL_DEFINITION ( 'draft international standard', 'automotive_design', 1998, #296 ) ;
#298 = PRODUCT_CONTEXT ( 'NONE', #296, 'mechanical' ) ;
#299 = APPLICATION_CONTEXT ( 'automotive_design' ) ;
#300 = APPLICATION_PROTOCOL_DEFINITION ( 'draft international standard', 'automotive_design', 1998, #299 ) ;
#301 = EDGE_CURVE ( 'NONE', #169, #170, #2, .T. ) ;
#302 = MECHANICAL_DESIGN_GEOMETRIC_PRESENTATION_REPRESENTATION (  '', ( #131 ), #132 ) ;
#303 = AXIS2_PLACEMENT_3D ( 'NONE', #181, #163, #214 ) ;
#304 = EDGE_CURVE ( 'NONE', #171, #169, #46, .T. ) ;
#305 = EDGE_CURVE ( 'NONE', #156, #165, #54, .T. ) ;
#306 = MECHANICAL_DESIGN_GEOMETRIC_PRESENTATION_REPRESENTATION (  '', ( #96 ), #42 ) ;
#307 = PRESENTATION_LAYER_ASSIGNMENT (  '', '', ( #96 ) ) ;
#308 = AXIS2_PLACEMENT_3D ( 'NONE', #208, #197, #213 ) ;
#309 = EDGE_CURVE ( 'NONE', #153, #165, #60, .T. ) ;
#310 = EDGE_CURVE ( 'NONE', #168, #170, #56, .T. ) ;
#311 = EDGE_CURVE ( 'NONE', #169, #171, #66, .T. ) ;
#312 = EDGE_CURVE ( 'NONE', #164, #166, #87, .T. ) ;
#313 = AXIS2_PLACEMENT_3D ( 'NONE', #293, #294, #295 ) ;
#314 = AXIS2_PLACEMENT_3D ( 'NONE', #187, #207, #174 ) ;
#315 = EDGE_CURVE ( 'NONE', #154, #157, #43, .T. ) ;
#316 = EDGE_CURVE ( 'NONE', #170, #168, #75, .T. ) ;
#317 = AXIS2_PLACEMENT_3D ( 'NONE', #217, #209, #201 ) ;
#318 = AXIS2_PLACEMENT_3D ( 'NONE', #194, #179, #236 ) ;
#319 = EDGE_CURVE ( 'NONE', #155, #154, #16, .T. ) ;
#320 = EDGE_CURVE ( 'NONE', #162, #153, #41, .T. ) ;
#321 = EDGE_CURVE ( 'NONE', #152, #159, #123, .T. ) ;
#322 = EDGE_CURVE ( 'NONE', #171, #168, #67, .T. ) ;
#323 = EDGE_CURVE ( 'NONE', #166, #152, #68, .T. ) ;
#324 = EDGE_CURVE ( 'NONE', #157, #153, #79, .T. ) ;
#325 = EDGE_CURVE ( 'NONE', #164, #159, #17, .T. ) ;
#326 = EDGE_CURVE ( 'NONE', #157, #156, #63, .T. ) ;
#327 = AXIS2_PLACEMENT_3D ( 'NONE', #229, #240, #241 ) ;
#328 = PRESENTATION_LAYER_ASSIGNMENT (  '', '', ( #131 ) ) ;
#329 = AXIS2_PLACEMENT_3D ( 'NONE', #192, #242, #243 ) ;
#330 = EDGE_CURVE ( 'NONE', #166, #164, #69, .T. ) ;
#331 = EDGE_CURVE ( 'NONE', #167, #162, #45, .T. ) ;
#332 = EDGE_CURVE ( 'NONE', #154, #162, #31, .T. ) ;
#333 = EDGE_CURVE ( 'NONE', #156, #155, #70, .T. ) ;
#334 = EDGE_CURVE ( 'NONE', #155, #167, #21, .T. ) ;
#335 = EDGE_CURVE ( 'NONE', #159, #152, #126, .T. ) ;
#336 = AXIS2_PLACEMENT_3D ( 'NONE', #239, #226, #238 ) ;
#337 = EDGE_CURVE ( 'NONE', #165, #167, #30, .T. ) ;
#338 = AXIS2_PLACEMENT_3D ( 'NONE', #273, #280, #281 ) ;
#339 = AXIS2_PLACEMENT_3D ( 'NONE', #247, #248, #249 ) ;
#340 = AXIS2_PLACEMENT_3D ( 'NONE', #255, #256, #257 ) ;
#341 = AXIS2_PLACEMENT_3D ( 'NONE', #218, #178, #173 ) ;
#342 = AXIS2_PLACEMENT_3D ( 'NONE', #161, #190, #196 ) ;
#343 = AXIS2_PLACEMENT_3D ( 'NONE', #198, #183, #195 ) ;
#344 = PRODUCT_DEFINITION ( 'UNKNOWN', '', #345, #135 ) ;
#345 = PRODUCT_DEFINITION_FORMATION_WITH_SPECIFIED_SOURCE ( 'ANY', '', #134, .NOT_KNOWN. ) ;
#346 = AXIS2_PLACEMENT_3D ( 'NONE', #210, #246, #172 ) ;
#347 = AXIS2_PLACEMENT_3D ( 'NONE', #219, #184, #180 ) ;
#348 = AXIS2_PLACEMENT_3D ( 'NONE', #267, #269, #270 ) ;
#349 = AXIS2_PLACEMENT_3D ( 'NONE', #225, #189, #203 ) ;
#350 = PRODUCT_RELATED_PRODUCT_CATEGORY ( 'part', '', ( #134 ) ) ;
ENDSEC;
END-ISO-10303-21;
