ISO-10303-21;
HEADER;
FILE_DESCRIPTION (( 'STEP AP214' ),
    '1' );
FILE_NAME ('Biellette 1.STEP',
    '2020-01-14T19:33:54',
    ( 'Olivier' ),
    ( 'Microsoft' ),
    'SwSTEP 2.0',
    'SolidWorks 2010',
    '' );
FILE_SCHEMA (( 'AUTOMOTIVE_DESIGN' ));
ENDSEC;

DATA;
#1 = ADVANCED_FACE ( 'NONE', ( #116, #81, #153 ), #218, .F. ) ;
#2 = ADVANCED_FACE ( 'NONE', ( #142 ), #301, .F. ) ;
#3 = ADVANCED_FACE ( 'NONE', ( #150 ), #303, .F. ) ;
#4 = ADVANCED_FACE ( 'NONE', ( #192 ), #147, .F. ) ;
#5 = ADVANCED_FACE ( 'NONE', ( #213 ), #154, .F. ) ;
#6 = ADVANCED_FACE ( 'NONE', ( #203 ), #248, .F. ) ;
#7 = ADVANCED_FACE ( 'NONE', ( #151 ), #149, .F. ) ;
#8 = ADVANCED_FACE ( 'NONE', ( #172 ), #269, .F. ) ;
#9 = ADVANCED_FACE ( 'NONE', ( #106, #204, #182 ), #277, .T. ) ;
#10 = EDGE_CURVE ( 'NONE', #251, #229, #78, .T. ) ;
#11 = EDGE_CURVE ( 'NONE', #238, #287, #103, .T. ) ;
#12 = AXIS2_PLACEMENT_3D ( 'NONE', #259, #239, #244 ) ;
#13 = AXIS2_PLACEMENT_3D ( 'NONE', #283, #270, #278 ) ;
#14 = AXIS2_PLACEMENT_3D ( 'NONE', #279, #271, #273 ) ;
#15 = EDGE_CURVE ( 'NONE', #291, #238, #90, .T. ) ;
#16 = EDGE_CURVE ( 'NONE', #291, #295, #123, .T. ) ;
#17 = AXIS2_PLACEMENT_3D ( 'NONE', #274, #276, #250 ) ;
#18 = AXIS2_PLACEMENT_3D ( 'NONE', #275, #261, #260 ) ;
#19 = AXIS2_PLACEMENT_3D ( 'NONE', #226, #286, #297 ) ;
#20 = EDGE_CURVE ( 'NONE', #293, #302, #75, .T. ) ;
#21 = EDGE_CURVE ( 'NONE', #225, #298, #202, .T. ) ;
#22 = PRESENTATION_LAYER_ASSIGNMENT (  '', '', ( #98 ) ) ;
#23 = PRESENTATION_LAYER_ASSIGNMENT (  '', '', ( #208 ) ) ;
#24 = AXIS2_PLACEMENT_3D ( 'NONE', #344, #332, #220 ) ;
#25 = MECHANICAL_DESIGN_GEOMETRIC_PRESENTATION_REPRESENTATION (  '', ( #208 ), #86 ) ;
#26 = EDGE_CURVE ( 'NONE', #302, #298, #91, .T. ) ;
#27 = EDGE_CURVE ( 'NONE', #227, #224, #104, .T. ) ;
#28 = EDGE_CURVE ( 'NONE', #300, #224, #92, .T. ) ;
#29 = EDGE_CURVE ( 'NONE', #227, #299, #146, .T. ) ;
#30 = EDGE_CURVE ( 'NONE', #299, #227, #129, .T. ) ;
#31 = EDGE_CURVE ( 'NONE', #299, #300, #88, .T. ) ;
#32 = EDGE_CURVE ( 'NONE', #245, #251, #94, .T. ) ;
#33 = EDGE_CURVE ( 'NONE', #238, #245, #141, .T. ) ;
#34 = EDGE_CURVE ( 'NONE', #251, #291, #128, .T. ) ;
#35 = EDGE_CURVE ( 'NONE', #224, #300, #124, .T. ) ;
#36 = EDGE_CURVE ( 'NONE', #302, #293, #117, .T. ) ;
#37 = EDGE_CURVE ( 'NONE', #295, #287, #113, .T. ) ;
#38 = EDGE_CURVE ( 'NONE', #294, #229, #121, .T. ) ;
#39 = EDGE_CURVE ( 'NONE', #287, #294, #93, .T. ) ;
#40 = EDGE_CURVE ( 'NONE', #293, #225, #120, .T. ) ;
#41 = AXIS2_PLACEMENT_3D ( 'NONE', #228, #230, #231 ) ;
#42 = AXIS2_PLACEMENT_3D ( 'NONE', #219, #242, #243 ) ;
#43 = EDGE_CURVE ( 'NONE', #229, #295, #118, .T. ) ;
#44 = AXIS2_PLACEMENT_3D ( 'NONE', #237, #247, #249 ) ;
#45 = EDGE_CURVE ( 'NONE', #245, #294, #183, .T. ) ;
#46 = EDGE_CURVE ( 'NONE', #298, #225, #134, .T. ) ;
#47 = AXIS2_PLACEMENT_3D ( 'NONE', #345, #330, #342 ) ;
#48 = PRESENTATION_LAYER_ASSIGNMENT (  '', '', ( #99 ) ) ;
#49 = AXIS2_PLACEMENT_3D ( 'NONE', #236, #311, #365 ) ;
#50 = MECHANICAL_DESIGN_GEOMETRIC_PRESENTATION_REPRESENTATION (  '', ( #98 ), #100 ) ;
#51 = AXIS2_PLACEMENT_3D ( 'NONE', #280, #310, #304 ) ;
#52 = AXIS2_PLACEMENT_3D ( 'NONE', #358, #233, #326 ) ;
#53 = AXIS2_PLACEMENT_3D ( 'NONE', #355, #350, #351 ) ;
#54 = AXIS2_PLACEMENT_3D ( 'NONE', #337, #331, #320 ) ;
#55 = AXIS2_PLACEMENT_3D ( 'NONE', #223, #352, #353 ) ;
#56 = PRESENTATION_LAYER_ASSIGNMENT (  '', '', ( #140 ) ) ;
#57 = MECHANICAL_DESIGN_GEOMETRIC_PRESENTATION_REPRESENTATION (  '', ( #99 ), #74 ) ;
#58 = AXIS2_PLACEMENT_3D ( 'NONE', #339, #241, #308 ) ;
#59 = AXIS2_PLACEMENT_3D ( 'NONE', #373, #374, #372 ) ;
#60 = MECHANICAL_DESIGN_GEOMETRIC_PRESENTATION_REPRESENTATION (  '', ( #140 ), #180 ) ;
#61 = PRODUCT_DEFINITION ( 'UNKNOWN', '', #62, #73 ) ;
#62 = PRODUCT_DEFINITION_FORMATION_WITH_SPECIFIED_SOURCE ( 'ANY', '', #71, .NOT_KNOWN. ) ;
#63 = PRODUCT_RELATED_PRODUCT_CATEGORY ( 'part', '', ( #71 ) ) ;
#64 = UNCERTAINTY_MEASURE_WITH_UNIT (LENGTH_MEASURE( 1.000000000000000100E-005 ), #361, 'distance_accuracy_value', 'NONE');
#65 = UNCERTAINTY_MEASURE_WITH_UNIT (LENGTH_MEASURE( 1.000000000000000100E-005 ), #266, 'distance_accuracy_value', 'NONE');
#66 = UNCERTAINTY_MEASURE_WITH_UNIT (LENGTH_MEASURE( 1.000000000000000100E-005 ), #307, 'distance_accuracy_value', 'NONE');
#67 = UNCERTAINTY_MEASURE_WITH_UNIT (LENGTH_MEASURE( 1.000000000000000100E-005 ), #256, 'distance_accuracy_value', 'NONE');
#68 = ADVANCED_BREP_SHAPE_REPRESENTATION ( 'Biellette 1', ( #69, #59 ), #136 ) ;
#69 = MANIFOLD_SOLID_BREP ( 'Boss.-Extru.1', #178 ) ;
#70 = UNCERTAINTY_MEASURE_WITH_UNIT (LENGTH_MEASURE( 1.000000000000000100E-005 ), #362, 'distance_accuracy_value', 'NONE');
#71 = PRODUCT ( 'Biellette 1', 'Biellette 1', '', ( #378 ) ) ;
#72 = PRODUCT_DEFINITION_SHAPE ( 'NONE', 'NONE',  #61 ) ;
#73 = PRODUCT_DEFINITION_CONTEXT ( 'detailed design', #379, 'design' ) ;
#74 =( GEOMETRIC_REPRESENTATION_CONTEXT ( 3 ) GLOBAL_UNCERTAINTY_ASSIGNED_CONTEXT ( ( #66 ) ) GLOBAL_UNIT_ASSIGNED_CONTEXT ( ( #307, #221, #335 ) ) REPRESENTATION_CONTEXT ( 'NONE', 'WORKASPACE' ) );
#75 = CIRCLE ( 'NONE', #51, 5.000000000000000900 ) ;
#76 = VECTOR ( 'NONE', #356, 1000.000000000000000 ) ;
#77 = CYLINDRICAL_SURFACE ( 'NONE', #58, 5.000000000000000900 ) ;
#78 = LINE ( 'NONE', #281, #122 ) ;
#79 = EDGE_LOOP ( 'NONE', ( #193, #162, #190, #166 ) ) ;
#80 = VECTOR ( 'NONE', #296, 1000.000000000000000 ) ;
#81 = FACE_OUTER_BOUND ( 'NONE', #79, .T. ) ;
#82 = ORIENTED_EDGE ( 'NONE', *, *, #29, .T. ) ;
#83 = EDGE_LOOP ( 'NONE', ( #155, #197, #189, #188 ) ) ;
#84 = EDGE_LOOP ( 'NONE', ( #102, #195 ) ) ;
#85 = ORIENTED_EDGE ( 'NONE', *, *, #26, .F. ) ;
#86 =( GEOMETRIC_REPRESENTATION_CONTEXT ( 3 ) GLOBAL_UNCERTAINTY_ASSIGNED_CONTEXT ( ( #67 ) ) GLOBAL_UNIT_ASSIGNED_CONTEXT ( ( #256, #257, #258 ) ) REPRESENTATION_CONTEXT ( 'NONE', 'WORKASPACE' ) );
#87 = SURFACE_STYLE_FILL_AREA ( #253 ) ;
#88 = LINE ( 'NONE', #328, #105 ) ;
#89 = EDGE_LOOP ( 'NONE', ( #171, #184 ) ) ;
#90 = LINE ( 'NONE', #289, #80 ) ;
#91 = LINE ( 'NONE', #285, #143 ) ;
#92 = CIRCLE ( 'NONE', #52, 4.250000000000000000 ) ;
#93 = LINE ( 'NONE', #325, #131 ) ;
#94 = LINE ( 'NONE', #272, #107 ) ;
#95 = ORIENTED_EDGE ( 'NONE', *, *, #20, .F. ) ;
#96 = VECTOR ( 'NONE', #290, 1000.000000000000000 ) ;
#97 = VECTOR ( 'NONE', #334, 1000.000000000000000 ) ;
#98 = STYLED_ITEM ( 'NONE', ( #115 ), #5 ) ;
#99 = STYLED_ITEM ( 'NONE', ( #135 ), #69 ) ;
#100 =( GEOMETRIC_REPRESENTATION_CONTEXT ( 3 ) GLOBAL_UNCERTAINTY_ASSIGNED_CONTEXT ( ( #65 ) ) GLOBAL_UNIT_ASSIGNED_CONTEXT ( ( #266, #267, #268 ) ) REPRESENTATION_CONTEXT ( 'NONE', 'WORKASPACE' ) );
#101 = SURFACE_STYLE_FILL_AREA ( #336 ) ;
#102 = ORIENTED_EDGE ( 'NONE', *, *, #28, .T. ) ;
#103 = LINE ( 'NONE', #284, #214 ) ;
#104 = LINE ( 'NONE', #323, #76 ) ;
#105 = VECTOR ( 'NONE', #338, 1000.000000000000000 ) ;
#106 = FACE_BOUND ( 'NONE', #84, .T. ) ;
#107 = VECTOR ( 'NONE', #309, 1000.000000000000000 ) ;
#108 = SHAPE_DEFINITION_REPRESENTATION ( #72, #68 ) ;
#109 = EDGE_LOOP ( 'NONE', ( #95, #201 ) ) ;
#110 = EDGE_LOOP ( 'NONE', ( #198, #170 ) ) ;
#111 = PRESENTATION_STYLE_ASSIGNMENT (( #255 ) ) ;
#112 = COLOUR_RGB ( '',0.7921568627450980000, 0.8196078431372548800, 0.9333333333333333500 ) ;
#113 = LINE ( 'NONE', #349, #179 ) ;
#114 = COLOUR_RGB ( '',0.7921568627450980000, 0.8196078431372548800, 0.9333333333333333500 ) ;
#115 = PRESENTATION_STYLE_ASSIGNMENT (( #265 ) ) ;
#116 = FACE_BOUND ( 'NONE', #110, .T. ) ;
#117 = CIRCLE ( 'NONE', #55, 5.000000000000000900 ) ;
#118 = LINE ( 'NONE', #317, #119 ) ;
#119 = VECTOR ( 'NONE', #232, 1000.000000000000000 ) ;
#120 = LINE ( 'NONE', #235, #181 ) ;
#121 = LINE ( 'NONE', #316, #130 ) ;
#122 = VECTOR ( 'NONE', #292, 1000.000000000000000 ) ;
#123 = LINE ( 'NONE', #288, #96 ) ;
#124 = CIRCLE ( 'NONE', #53, 4.250000000000000000 ) ;
#125 = COLOUR_RGB ( '',0.7921568627450980000, 0.8196078431372548800, 0.9333333333333333500 ) ;
#126 = ORIENTED_EDGE ( 'NONE', *, *, #46, .F. ) ;
#127 = VECTOR ( 'NONE', #348, 1000.000000000000000 ) ;
#128 = LINE ( 'NONE', #347, #127 ) ;
#129 = CIRCLE ( 'NONE', #47, 4.250000000000000000 ) ;
#130 = VECTOR ( 'NONE', #319, 1000.000000000000000 ) ;
#131 = VECTOR ( 'NONE', #313, 1000.000000000000000 ) ;
#132 = PRESENTATION_STYLE_ASSIGNMENT (( #369 ) ) ;
#133 = FACE_OUTER_BOUND ( 'NONE', #205, .T. ) ;
#134 = CIRCLE ( 'NONE', #54, 5.000000000000000900 ) ;
#135 = PRESENTATION_STYLE_ASSIGNMENT (( #321 ) ) ;
#136 =( GEOMETRIC_REPRESENTATION_CONTEXT ( 3 ) GLOBAL_UNCERTAINTY_ASSIGNED_CONTEXT ( ( #70 ) ) GLOBAL_UNIT_ASSIGNED_CONTEXT ( ( #362, #371, #346 ) ) REPRESENTATION_CONTEXT ( 'NONE', 'WORKASPACE' ) );
#137 = COLOUR_RGB ( '',0.7921568627450980000, 0.8196078431372548800, 0.9333333333333333500 ) ;
#138 = SURFACE_STYLE_FILL_AREA ( #246 ) ;
#139 = ORIENTED_EDGE ( 'NONE', *, *, #11, .T. ) ;
#140 = STYLED_ITEM ( 'NONE', ( #132 ), #68 ) ;
#141 = LINE ( 'NONE', #329, #175 ) ;
#142 = FACE_OUTER_BOUND ( 'NONE', #187, .T. ) ;
#143 = VECTOR ( 'NONE', #354, 1000.000000000000000 ) ;
#144 = EDGE_LOOP ( 'NONE', ( #211, #176, #207, #173 ) ) ;
#145 = EDGE_LOOP ( 'NONE', ( #164, #215, #185, #191 ) ) ;
#146 = CIRCLE ( 'NONE', #24, 4.250000000000000000 ) ;
#147 = CYLINDRICAL_SURFACE ( 'NONE', #12, 4.250000000000001800 ) ;
#148 = EDGE_LOOP ( 'NONE', ( #199, #209, #196, #159 ) ) ;
#149 = CYLINDRICAL_SURFACE ( 'NONE', #17, 5.000000000000000900 ) ;
#150 = FACE_OUTER_BOUND ( 'NONE', #144, .T. ) ;
#151 = FACE_OUTER_BOUND ( 'NONE', #168, .T. ) ;
#152 = SURFACE_STYLE_FILL_AREA ( #263 ) ;
#153 = FACE_BOUND ( 'NONE', #109, .T. ) ;
#154 = CYLINDRICAL_SURFACE ( 'NONE', #18, 4.250000000000001800 ) ;
#155 = ORIENTED_EDGE ( 'NONE', *, *, #39, .F. ) ;
#156 = ORIENTED_EDGE ( 'NONE', *, *, #21, .F. ) ;
#157 = ORIENTED_EDGE ( 'NONE', *, *, #26, .T. ) ;
#158 = ORIENTED_EDGE ( 'NONE', *, *, #35, .F. ) ;
#159 = ORIENTED_EDGE ( 'NONE', *, *, #10, .T. ) ;
#160 = ORIENTED_EDGE ( 'NONE', *, *, #45, .F. ) ;
#161 = ORIENTED_EDGE ( 'NONE', *, *, #31, .T. ) ;
#162 = ORIENTED_EDGE ( 'NONE', *, *, #32, .T. ) ;
#163 = ORIENTED_EDGE ( 'NONE', *, *, #36, .T. ) ;
#164 = ORIENTED_EDGE ( 'NONE', *, *, #38, .T. ) ;
#165 = ORIENTED_EDGE ( 'NONE', *, *, #31, .F. ) ;
#166 = ORIENTED_EDGE ( 'NONE', *, *, #15, .T. ) ;
#167 = ORIENTED_EDGE ( 'NONE', *, *, #20, .T. ) ;
#168 = EDGE_LOOP ( 'NONE', ( #85, #163, #206, #126 ) ) ;
#169 = ORIENTED_EDGE ( 'NONE', *, *, #39, .T. ) ;
#170 = ORIENTED_EDGE ( 'NONE', *, *, #29, .F. ) ;
#171 = ORIENTED_EDGE ( 'NONE', *, *, #21, .T. ) ;
#172 = FACE_OUTER_BOUND ( 'NONE', #148, .T. ) ;
#173 = ORIENTED_EDGE ( 'NONE', *, *, #16, .T. ) ;
#174 = ORIENTED_EDGE ( 'NONE', *, *, #30, .T. ) ;
#175 = VECTOR ( 'NONE', #327, 1000.000000000000000 ) ;
#176 = ORIENTED_EDGE ( 'NONE', *, *, #11, .F. ) ;
#177 = EDGE_LOOP ( 'NONE', ( #210, #82, #161, #158 ) ) ;
#178 = CLOSED_SHELL ( 'NONE', ( #217, #5, #1, #9, #2, #6, #8, #3, #4, #7 ) ) ;
#179 = VECTOR ( 'NONE', #312, 1000.000000000000000 ) ;
#180 =( GEOMETRIC_REPRESENTATION_CONTEXT ( 3 ) GLOBAL_UNCERTAINTY_ASSIGNED_CONTEXT ( ( #64 ) ) GLOBAL_UNIT_ASSIGNED_CONTEXT ( ( #361, #367, #370 ) ) REPRESENTATION_CONTEXT ( 'NONE', 'WORKASPACE' ) );
#181 = VECTOR ( 'NONE', #234, 1000.000000000000000 ) ;
#182 = FACE_BOUND ( 'NONE', #89, .T. ) ;
#183 = LINE ( 'NONE', #305, #97 ) ;
#184 = ORIENTED_EDGE ( 'NONE', *, *, #46, .T. ) ;
#185 = ORIENTED_EDGE ( 'NONE', *, *, #32, .F. ) ;
#186 = ORIENTED_EDGE ( 'NONE', *, *, #33, .F. ) ;
#187 = EDGE_LOOP ( 'NONE', ( #169, #160, #186, #139 ) ) ;
#188 = ORIENTED_EDGE ( 'NONE', *, *, #38, .F. ) ;
#189 = ORIENTED_EDGE ( 'NONE', *, *, #43, .F. ) ;
#190 = ORIENTED_EDGE ( 'NONE', *, *, #34, .T. ) ;
#191 = ORIENTED_EDGE ( 'NONE', *, *, #45, .T. ) ;
#192 = FACE_OUTER_BOUND ( 'NONE', #177, .T. ) ;
#193 = ORIENTED_EDGE ( 'NONE', *, *, #33, .T. ) ;
#194 = ORIENTED_EDGE ( 'NONE', *, *, #40, .F. ) ;
#195 = ORIENTED_EDGE ( 'NONE', *, *, #35, .T. ) ;
#196 = ORIENTED_EDGE ( 'NONE', *, *, #34, .F. ) ;
#197 = ORIENTED_EDGE ( 'NONE', *, *, #37, .F. ) ;
#198 = ORIENTED_EDGE ( 'NONE', *, *, #30, .F. ) ;
#199 = ORIENTED_EDGE ( 'NONE', *, *, #43, .T. ) ;
#200 = ORIENTED_EDGE ( 'NONE', *, *, #27, .T. ) ;
#201 = ORIENTED_EDGE ( 'NONE', *, *, #36, .F. ) ;
#202 = CIRCLE ( 'NONE', #49, 5.000000000000000900 ) ;
#203 = FACE_OUTER_BOUND ( 'NONE', #145, .T. ) ;
#204 = FACE_OUTER_BOUND ( 'NONE', #83, .T. ) ;
#205 = EDGE_LOOP ( 'NONE', ( #167, #157, #156, #194 ) ) ;
#206 = ORIENTED_EDGE ( 'NONE', *, *, #40, .T. ) ;
#207 = ORIENTED_EDGE ( 'NONE', *, *, #15, .F. ) ;
#208 = STYLED_ITEM ( 'NONE', ( #111 ), #4 ) ;
#209 = ORIENTED_EDGE ( 'NONE', *, *, #16, .F. ) ;
#210 = ORIENTED_EDGE ( 'NONE', *, *, #27, .F. ) ;
#211 = ORIENTED_EDGE ( 'NONE', *, *, #37, .T. ) ;
#212 = ORIENTED_EDGE ( 'NONE', *, *, #28, .F. ) ;
#213 = FACE_OUTER_BOUND ( 'NONE', #216, .T. ) ;
#214 = VECTOR ( 'NONE', #282, 1000.000000000000000 ) ;
#215 = ORIENTED_EDGE ( 'NONE', *, *, #10, .F. ) ;
#216 = EDGE_LOOP ( 'NONE', ( #174, #200, #212, #165 ) ) ;
#217 = ADVANCED_FACE ( 'NONE', ( #133 ), #77, .F. ) ;
#218 = PLANE ( 'NONE',  #41 ) ;
#219 = CARTESIAN_POINT ( 'NONE',  ( -25.00000000000000000, 9.999999999999998200, 5.000000000000000000 ) ) ;
#220 = DIRECTION ( 'NONE',  ( 1.000000000000000000, 0.0000000000000000000, 0.0000000000000000000 ) ) ;
#221 =( NAMED_UNIT ( * ) PLANE_ANGLE_UNIT ( ) SI_UNIT ( $, .RADIAN. ) );
#222 = CARTESIAN_POINT ( 'NONE',  ( -10.75000000000000000, 8.368045934297995500E-016, 5.000000000000000000 ) ) ;
#223 = CARTESIAN_POINT ( 'NONE',  ( 15.00000000000000400, -9.395912536018174800E-017, 5.000000000000000000 ) ) ;
#224 = VERTEX_POINT ( 'NONE', #240 ) ;
#225 = VERTEX_POINT ( 'NONE', #318 ) ;
#226 = CARTESIAN_POINT ( 'NONE',  ( -25.00000000000000000, -10.00000000000000200, 0.0000000000000000000 ) ) ;
#227 = VERTEX_POINT ( 'NONE', #222 ) ;
#228 = CARTESIAN_POINT ( 'NONE',  ( -25.00000000000000000, -10.00000000000000200, 5.000000000000000000 ) ) ;
#229 = VERTEX_POINT ( 'NONE', #314 ) ;
#230 = DIRECTION ( 'NONE',  ( 0.0000000000000000000, 0.0000000000000000000, -1.000000000000000000 ) ) ;
#231 = DIRECTION ( 'NONE',  ( -1.000000000000000000, 0.0000000000000000000, -0.0000000000000000000 ) ) ;
#232 = DIRECTION ( 'NONE',  ( -6.938893903907227400E-016, 1.000000000000000000, -0.0000000000000000000 ) ) ;
#233 = DIRECTION ( 'NONE',  ( 0.0000000000000000000, 0.0000000000000000000, 1.000000000000000000 ) ) ;
#234 = DIRECTION ( 'NONE',  ( -0.0000000000000000000, -0.0000000000000000000, -1.000000000000000000 ) ) ;
#235 = CARTESIAN_POINT ( 'NONE',  ( 10.00000000000000200, -9.395912536018174800E-017, 5.000000000000000000 ) ) ;
#236 = CARTESIAN_POINT ( 'NONE',  ( 15.00000000000000400, -9.395912536018174800E-017, 0.0000000000000000000 ) ) ;
#237 = CARTESIAN_POINT ( 'NONE',  ( 25.00000000000000000, 10.00000000000000500, 5.000000000000000000 ) ) ;
#238 = VERTEX_POINT ( 'NONE', #315 ) ;
#239 = DIRECTION ( 'NONE',  ( -0.0000000000000000000, -0.0000000000000000000, -1.000000000000000000 ) ) ;
#240 = CARTESIAN_POINT ( 'NONE',  ( -10.75000000000000000, 8.368045934297995500E-016, 0.0000000000000000000 ) ) ;
#241 = DIRECTION ( 'NONE',  ( -0.0000000000000000000, -0.0000000000000000000, -1.000000000000000000 ) ) ;
#242 = DIRECTION ( 'NONE',  ( 1.000000000000000000, 0.0000000000000000000, -0.0000000000000000000 ) ) ;
#243 = DIRECTION ( 'NONE',  ( -0.0000000000000000000, 0.0000000000000000000, -1.000000000000000000 ) ) ;
#244 = DIRECTION ( 'NONE',  ( -1.000000000000000000, 0.0000000000000000000, 0.0000000000000000000 ) ) ;
#245 = VERTEX_POINT ( 'NONE', #341 ) ;
#246 = FILL_AREA_STYLE ('',( #324 ) ) ;
#247 = DIRECTION ( 'NONE',  ( 1.387778780781445700E-016, -1.000000000000000000, 0.0000000000000000000 ) ) ;
#248 = PLANE ( 'NONE',  #14 ) ;
#249 = DIRECTION ( 'NONE',  ( 1.000000000000000000, 1.387778780781445700E-016, 0.0000000000000000000 ) ) ;
#250 = DIRECTION ( 'NONE',  ( -1.000000000000000000, 0.0000000000000000000, 0.0000000000000000000 ) ) ;
#251 = VERTEX_POINT ( 'NONE', #306 ) ;
#252 = FILL_AREA_STYLE_COLOUR ( '', #112 ) ;
#253 = FILL_AREA_STYLE ('',( #252 ) ) ;
#254 = SURFACE_SIDE_STYLE ('',( #87 ) ) ;
#255 = SURFACE_STYLE_USAGE ( .BOTH. , #254 ) ;
#256 =( LENGTH_UNIT ( ) NAMED_UNIT ( * ) SI_UNIT ( .MILLI., .METRE. ) );
#257 =( NAMED_UNIT ( * ) PLANE_ANGLE_UNIT ( ) SI_UNIT ( $, .RADIAN. ) );
#258 =( NAMED_UNIT ( * ) SI_UNIT ( $, .STERADIAN. ) SOLID_ANGLE_UNIT ( ) );
#259 = CARTESIAN_POINT ( 'NONE',  ( -15.00000000000000200, 3.163297037921744800E-016, 5.000000000000000000 ) ) ;
#260 = DIRECTION ( 'NONE',  ( -1.000000000000000000, 0.0000000000000000000, 0.0000000000000000000 ) ) ;
#261 = DIRECTION ( 'NONE',  ( -0.0000000000000000000, -0.0000000000000000000, -1.000000000000000000 ) ) ;
#262 = FILL_AREA_STYLE_COLOUR ( '', #125 ) ;
#263 = FILL_AREA_STYLE ('',( #262 ) ) ;
#264 = SURFACE_SIDE_STYLE ('',( #152 ) ) ;
#265 = SURFACE_STYLE_USAGE ( .BOTH. , #264 ) ;
#266 =( LENGTH_UNIT ( ) NAMED_UNIT ( * ) SI_UNIT ( .MILLI., .METRE. ) );
#267 =( NAMED_UNIT ( * ) PLANE_ANGLE_UNIT ( ) SI_UNIT ( $, .RADIAN. ) );
#268 =( NAMED_UNIT ( * ) SI_UNIT ( $, .STERADIAN. ) SOLID_ANGLE_UNIT ( ) );
#269 = PLANE ( 'NONE',  #13 ) ;
#270 = DIRECTION ( 'NONE',  ( -1.000000000000000000, -6.938893903907227400E-016, 0.0000000000000000000 ) ) ;
#271 = DIRECTION ( 'NONE',  ( -1.040834085586083900E-016, 1.000000000000000000, 0.0000000000000000000 ) ) ;
#272 = CARTESIAN_POINT ( 'NONE',  ( 25.00000000000001400, -9.999999999999996400, 5.000000000000000000 ) ) ;
#273 = DIRECTION ( 'NONE',  ( -1.000000000000000000, -1.040834085586083900E-016, 0.0000000000000000000 ) ) ;
#274 = CARTESIAN_POINT ( 'NONE',  ( 15.00000000000000400, -9.395912536018174800E-017, 5.000000000000000000 ) ) ;
#275 = CARTESIAN_POINT ( 'NONE',  ( -15.00000000000000200, 3.163297037921744800E-016, 5.000000000000000000 ) ) ;
#276 = DIRECTION ( 'NONE',  ( -0.0000000000000000000, -0.0000000000000000000, -1.000000000000000000 ) ) ;
#277 = PLANE ( 'NONE',  #19 ) ;
#278 = DIRECTION ( 'NONE',  ( 6.938893903907227400E-016, -1.000000000000000000, 0.0000000000000000000 ) ) ;
#279 = CARTESIAN_POINT ( 'NONE',  ( 25.00000000000001400, -9.999999999999996400, 5.000000000000000000 ) ) ;
#280 = CARTESIAN_POINT ( 'NONE',  ( 15.00000000000000400, -9.395912536018174800E-017, 5.000000000000000000 ) ) ;
#281 = CARTESIAN_POINT ( 'NONE',  ( 25.00000000000001400, -9.999999999999996400, 5.000000000000000000 ) ) ;
#282 = DIRECTION ( 'NONE',  ( -0.0000000000000000000, -0.0000000000000000000, -1.000000000000000000 ) ) ;
#283 = CARTESIAN_POINT ( 'NONE',  ( 25.00000000000000000, 10.00000000000000500, 5.000000000000000000 ) ) ;
#284 = CARTESIAN_POINT ( 'NONE',  ( -25.00000000000000000, 9.999999999999998200, 5.000000000000000000 ) ) ;
#285 = CARTESIAN_POINT ( 'NONE',  ( 20.00000000000000400, 5.183642742134947600E-016, 5.000000000000000000 ) ) ;
#286 = DIRECTION ( 'NONE',  ( 0.0000000000000000000, 0.0000000000000000000, -1.000000000000000000 ) ) ;
#287 = VERTEX_POINT ( 'NONE', #357 ) ;
#288 = CARTESIAN_POINT ( 'NONE',  ( 25.00000000000000000, 10.00000000000000500, 5.000000000000000000 ) ) ;
#289 = CARTESIAN_POINT ( 'NONE',  ( 25.00000000000000000, 10.00000000000000500, 5.000000000000000000 ) ) ;
#290 = DIRECTION ( 'NONE',  ( -0.0000000000000000000, -0.0000000000000000000, -1.000000000000000000 ) ) ;
#291 = VERTEX_POINT ( 'NONE', #340 ) ;
#292 = DIRECTION ( 'NONE',  ( -0.0000000000000000000, -0.0000000000000000000, -1.000000000000000000 ) ) ;
#293 = VERTEX_POINT ( 'NONE', #343 ) ;
#294 = VERTEX_POINT ( 'NONE', #375 ) ;
#295 = VERTEX_POINT ( 'NONE', #363 ) ;
#296 = DIRECTION ( 'NONE',  ( -1.000000000000000000, -1.387778780781445700E-016, 0.0000000000000000000 ) ) ;
#297 = DIRECTION ( 'NONE',  ( -1.000000000000000000, 0.0000000000000000000, -0.0000000000000000000 ) ) ;
#298 = VERTEX_POINT ( 'NONE', #364 ) ;
#299 = VERTEX_POINT ( 'NONE', #359 ) ;
#300 = VERTEX_POINT ( 'NONE', #366 ) ;
#301 = PLANE ( 'NONE',  #42 ) ;
#302 = VERTEX_POINT ( 'NONE', #360 ) ;
#303 = PLANE ( 'NONE',  #44 ) ;
#304 = DIRECTION ( 'NONE',  ( 1.000000000000000000, 0.0000000000000000000, 0.0000000000000000000 ) ) ;
#305 = CARTESIAN_POINT ( 'NONE',  ( -25.00000000000000000, -10.00000000000000200, 5.000000000000000000 ) ) ;
#306 = CARTESIAN_POINT ( 'NONE',  ( 25.00000000000001400, -9.999999999999996400, 5.000000000000000000 ) ) ;
#307 =( LENGTH_UNIT ( ) NAMED_UNIT ( * ) SI_UNIT ( .MILLI., .METRE. ) );
#308 = DIRECTION ( 'NONE',  ( -1.000000000000000000, 0.0000000000000000000, 0.0000000000000000000 ) ) ;
#309 = DIRECTION ( 'NONE',  ( 1.000000000000000000, 1.040834085586083900E-016, -0.0000000000000000000 ) ) ;
#310 = DIRECTION ( 'NONE',  ( 0.0000000000000000000, 0.0000000000000000000, 1.000000000000000000 ) ) ;
#311 = DIRECTION ( 'NONE',  ( 0.0000000000000000000, 0.0000000000000000000, 1.000000000000000000 ) ) ;
#312 = DIRECTION ( 'NONE',  ( -1.000000000000000000, -1.387778780781445700E-016, 0.0000000000000000000 ) ) ;
#313 = DIRECTION ( 'NONE',  ( 0.0000000000000000000, -1.000000000000000000, 0.0000000000000000000 ) ) ;
#314 = CARTESIAN_POINT ( 'NONE',  ( 25.00000000000001400, -9.999999999999996400, 0.0000000000000000000 ) ) ;
#315 = CARTESIAN_POINT ( 'NONE',  ( -25.00000000000000000, 9.999999999999998200, 5.000000000000000000 ) ) ;
#316 = CARTESIAN_POINT ( 'NONE',  ( 25.00000000000001400, -9.999999999999996400, 0.0000000000000000000 ) ) ;
#317 = CARTESIAN_POINT ( 'NONE',  ( 25.00000000000000000, 10.00000000000000500, 0.0000000000000000000 ) ) ;
#318 = CARTESIAN_POINT ( 'NONE',  ( 10.00000000000000200, -9.395912536018174800E-017, 0.0000000000000000000 ) ) ;
#319 = DIRECTION ( 'NONE',  ( 1.000000000000000000, 1.040834085586083900E-016, -0.0000000000000000000 ) ) ;
#320 = DIRECTION ( 'NONE',  ( 1.000000000000000000, 0.0000000000000000000, 0.0000000000000000000 ) ) ;
#321 = SURFACE_STYLE_USAGE ( .BOTH. , #333 ) ;
#322 = FILL_AREA_STYLE_COLOUR ( '', #114 ) ;
#323 = CARTESIAN_POINT ( 'NONE',  ( -10.75000000000000000, 8.368045934297995500E-016, 5.000000000000000000 ) ) ;
#324 = FILL_AREA_STYLE_COLOUR ( '', #137 ) ;
#325 = CARTESIAN_POINT ( 'NONE',  ( -25.00000000000000000, 9.999999999999998200, 0.0000000000000000000 ) ) ;
#326 = DIRECTION ( 'NONE',  ( 1.000000000000000000, 0.0000000000000000000, 0.0000000000000000000 ) ) ;
#327 = DIRECTION ( 'NONE',  ( 0.0000000000000000000, -1.000000000000000000, 0.0000000000000000000 ) ) ;
#328 = CARTESIAN_POINT ( 'NONE',  ( -19.25000000000000400, 3.163297037921744800E-016, 5.000000000000000000 ) ) ;
#329 = CARTESIAN_POINT ( 'NONE',  ( -25.00000000000000000, 9.999999999999998200, 5.000000000000000000 ) ) ;
#330 = DIRECTION ( 'NONE',  ( 0.0000000000000000000, 0.0000000000000000000, 1.000000000000000000 ) ) ;
#331 = DIRECTION ( 'NONE',  ( 0.0000000000000000000, 0.0000000000000000000, 1.000000000000000000 ) ) ;
#332 = DIRECTION ( 'NONE',  ( 0.0000000000000000000, 0.0000000000000000000, 1.000000000000000000 ) ) ;
#333 = SURFACE_SIDE_STYLE ('',( #101 ) ) ;
#334 = DIRECTION ( 'NONE',  ( -0.0000000000000000000, -0.0000000000000000000, -1.000000000000000000 ) ) ;
#335 =( NAMED_UNIT ( * ) SI_UNIT ( $, .STERADIAN. ) SOLID_ANGLE_UNIT ( ) );
#336 = FILL_AREA_STYLE ('',( #322 ) ) ;
#337 = CARTESIAN_POINT ( 'NONE',  ( 15.00000000000000400, -9.395912536018174800E-017, 0.0000000000000000000 ) ) ;
#338 = DIRECTION ( 'NONE',  ( -0.0000000000000000000, -0.0000000000000000000, -1.000000000000000000 ) ) ;
#339 = CARTESIAN_POINT ( 'NONE',  ( 15.00000000000000400, -9.395912536018174800E-017, 5.000000000000000000 ) ) ;
#340 = CARTESIAN_POINT ( 'NONE',  ( 25.00000000000000000, 10.00000000000000500, 5.000000000000000000 ) ) ;
#341 = CARTESIAN_POINT ( 'NONE',  ( -25.00000000000000000, -10.00000000000000200, 5.000000000000000000 ) ) ;
#342 = DIRECTION ( 'NONE',  ( 1.000000000000000000, 0.0000000000000000000, 0.0000000000000000000 ) ) ;
#343 = CARTESIAN_POINT ( 'NONE',  ( 10.00000000000000200, -9.395912536018174800E-017, 5.000000000000000000 ) ) ;
#344 = CARTESIAN_POINT ( 'NONE',  ( -15.00000000000000200, 3.163297037921744800E-016, 5.000000000000000000 ) ) ;
#345 = CARTESIAN_POINT ( 'NONE',  ( -15.00000000000000200, 3.163297037921744800E-016, 5.000000000000000000 ) ) ;
#346 =( NAMED_UNIT ( * ) SI_UNIT ( $, .STERADIAN. ) SOLID_ANGLE_UNIT ( ) );
#347 = CARTESIAN_POINT ( 'NONE',  ( 25.00000000000000000, 10.00000000000000500, 5.000000000000000000 ) ) ;
#348 = DIRECTION ( 'NONE',  ( -6.938893903907227400E-016, 1.000000000000000000, -0.0000000000000000000 ) ) ;
#349 = CARTESIAN_POINT ( 'NONE',  ( 25.00000000000000000, 10.00000000000000500, 0.0000000000000000000 ) ) ;
#350 = DIRECTION ( 'NONE',  ( 0.0000000000000000000, 0.0000000000000000000, 1.000000000000000000 ) ) ;
#351 = DIRECTION ( 'NONE',  ( 1.000000000000000000, 0.0000000000000000000, 0.0000000000000000000 ) ) ;
#352 = DIRECTION ( 'NONE',  ( 0.0000000000000000000, 0.0000000000000000000, 1.000000000000000000 ) ) ;
#353 = DIRECTION ( 'NONE',  ( 1.000000000000000000, 0.0000000000000000000, 0.0000000000000000000 ) ) ;
#354 = DIRECTION ( 'NONE',  ( -0.0000000000000000000, -0.0000000000000000000, -1.000000000000000000 ) ) ;
#355 = CARTESIAN_POINT ( 'NONE',  ( -15.00000000000000200, 3.163297037921744800E-016, 0.0000000000000000000 ) ) ;
#356 = DIRECTION ( 'NONE',  ( -0.0000000000000000000, -0.0000000000000000000, -1.000000000000000000 ) ) ;
#357 = CARTESIAN_POINT ( 'NONE',  ( -25.00000000000000000, 9.999999999999998200, 0.0000000000000000000 ) ) ;
#358 = CARTESIAN_POINT ( 'NONE',  ( -15.00000000000000200, 3.163297037921744800E-016, 0.0000000000000000000 ) ) ;
#359 = CARTESIAN_POINT ( 'NONE',  ( -19.25000000000000400, 3.163297037921744800E-016, 5.000000000000000000 ) ) ;
#360 = CARTESIAN_POINT ( 'NONE',  ( 20.00000000000000400, 5.183642742134947600E-016, 5.000000000000000000 ) ) ;
#361 =( LENGTH_UNIT ( ) NAMED_UNIT ( * ) SI_UNIT ( .MILLI., .METRE. ) );
#362 =( LENGTH_UNIT ( ) NAMED_UNIT ( * ) SI_UNIT ( .MILLI., .METRE. ) );
#363 = CARTESIAN_POINT ( 'NONE',  ( 25.00000000000000000, 10.00000000000000500, 0.0000000000000000000 ) ) ;
#364 = CARTESIAN_POINT ( 'NONE',  ( 20.00000000000000400, 5.183642742134947600E-016, 0.0000000000000000000 ) ) ;
#365 = DIRECTION ( 'NONE',  ( 1.000000000000000000, 0.0000000000000000000, 0.0000000000000000000 ) ) ;
#366 = CARTESIAN_POINT ( 'NONE',  ( -19.25000000000000400, 3.163297037921744800E-016, 0.0000000000000000000 ) ) ;
#367 =( NAMED_UNIT ( * ) PLANE_ANGLE_UNIT ( ) SI_UNIT ( $, .RADIAN. ) );
#368 = SURFACE_SIDE_STYLE ('',( #138 ) ) ;
#369 = SURFACE_STYLE_USAGE ( .BOTH. , #368 ) ;
#370 =( NAMED_UNIT ( * ) SI_UNIT ( $, .STERADIAN. ) SOLID_ANGLE_UNIT ( ) );
#371 =( NAMED_UNIT ( * ) PLANE_ANGLE_UNIT ( ) SI_UNIT ( $, .RADIAN. ) );
#372 = DIRECTION ( 'NONE',  ( 1.000000000000000000, 0.0000000000000000000, 0.0000000000000000000 ) ) ;
#373 = CARTESIAN_POINT ( 'NONE',  ( 0.0000000000000000000, 0.0000000000000000000, 0.0000000000000000000 ) ) ;
#374 = DIRECTION ( 'NONE',  ( 0.0000000000000000000, 0.0000000000000000000, 1.000000000000000000 ) ) ;
#375 = CARTESIAN_POINT ( 'NONE',  ( -25.00000000000000000, -10.00000000000000200, 0.0000000000000000000 ) ) ;
#376 = APPLICATION_CONTEXT ( 'automotive_design' ) ;
#377 = APPLICATION_PROTOCOL_DEFINITION ( 'draft international standard', 'automotive_design', 1998, #376 ) ;
#378 = PRODUCT_CONTEXT ( 'NONE', #376, 'mechanical' ) ;
#379 = APPLICATION_CONTEXT ( 'automotive_design' ) ;
#380 = APPLICATION_PROTOCOL_DEFINITION ( 'draft international standard', 'automotive_design', 1998, #379 ) ;
ENDSEC;
END-ISO-10303-21;
