ISO-10303-21;
HEADER;
FILE_DESCRIPTION (( 'STEP AP214' ),
    '1' );
FILE_NAME ('Barre gouvernail.STEP',
    '2020-01-07T19:56:08',
    ( 'Olivier' ),
    ( 'Microsoft' ),
    'SwSTEP 2.0',
    'SolidWorks 2010',
    '' );
FILE_SCHEMA (( 'AUTOMOTIVE_DESIGN' ));
ENDSEC;

DATA;
#1 = DIRECTION ( 'NONE',  ( 0.0000000000000000000, 1.000000000000000000, 0.0000000000000000000 ) ) ;
#2 = CARTESIAN_POINT ( 'NONE',  ( 5.000000000000000000, 890.0000000000000000, -6.733475640742663300E-016 ) ) ;
#3 = FILL_AREA_STYLE ('',( #122 ) ) ;
#4 = CARTESIAN_POINT ( 'NONE',  ( 76.19275263434326500, 956.3649160153083800, 4.675280001761428300E-014 ) ) ;
#5 = DIRECTION ( 'NONE',  ( 0.8191520442889920200, 0.5735764363510457200, -1.136801825298007200E-016 ) ) ;
#6 = CARTESIAN_POINT ( 'NONE',  ( 10.66058909122380500, 910.4788011072247400, -1.479453933143070400E-015 ) ) ;
#7 = SURFACE_SIDE_STYLE ('',( #170 ) ) ;
#8 = SURFACE_STYLE_USAGE ( .BOTH. , #7 ) ;
#9 = VERTEX_POINT ( 'NONE', #94 ) ;
#10 = CARTESIAN_POINT ( 'NONE',  ( 0.0000000000000000000, 890.0000000000000000, 0.0000000000000000000 ) ) ;
#11 = CARTESIAN_POINT ( 'NONE',  ( 76.19275263434326500, 956.3649160153083800, 4.675280001761428300E-014 ) ) ;
#12 =( NAMED_UNIT ( * ) SI_UNIT ( $, .STERADIAN. ) SOLID_ANGLE_UNIT ( ) );
#13 = DIRECTION ( 'NONE',  ( 0.8191520442889929100, 0.5735764363510446100, 6.029031743844666400E-016 ) ) ;
#14 = DIRECTION ( 'NONE',  ( 0.0000000000000000000, 0.0000000000000000000, 1.000000000000000000 ) ) ;
#15 = FILL_AREA_STYLE ('',( #22 ) ) ;
#16 = CARTESIAN_POINT ( 'NONE',  ( 13.52847127297903800, 906.3830408857797900, -8.671305335693856200E-016 ) ) ;
#17 = SURFACE_STYLE_USAGE ( .BOTH. , #124 ) ;
#18 = DIRECTION ( 'NONE',  ( 0.8191520442889929100, 0.5735764363510446100, 6.029031743844666400E-016 ) ) ;
#19 = DIRECTION ( 'NONE',  ( 0.8191520442889920200, 0.5735764363510457200, -1.136801825298007200E-016 ) ) ;
#20 = DIRECTION ( 'NONE',  ( -1.387778780781446900E-016, 0.0000000000000000000, -1.000000000000000000 ) ) ;
#21 = FILL_AREA_STYLE_COLOUR ( '', #163 ) ;
#22 = FILL_AREA_STYLE_COLOUR ( '', #270 ) ;
#23 = CARTESIAN_POINT ( 'NONE',  ( 0.0000000000000000000, 890.0000000000000000, 0.0000000000000000000 ) ) ;
#24 = DIRECTION ( 'NONE',  ( -0.0000000000000000000, -1.000000000000000000, -0.0000000000000000000 ) ) ;
#25 = CARTESIAN_POINT ( 'NONE',  ( 25.00000000000000000, 890.0000000000000000, -3.469446951953614200E-015 ) ) ;
#26 =( LENGTH_UNIT ( ) NAMED_UNIT ( * ) SI_UNIT ( .MILLI., .METRE. ) );
#27 = DIRECTION ( 'NONE',  ( 0.0000000000000000000, 0.0000000000000000000, 1.000000000000000000 ) ) ;
#28 = FILL_AREA_STYLE_COLOUR ( '', #179 ) ;
#29 = DIRECTION ( 'NONE',  ( 0.0000000000000000000, 0.0000000000000000000, 1.000000000000000000 ) ) ;
#30 = DIRECTION ( 'NONE',  ( 0.8191520442889920200, 0.5735764363510457200, -1.136801825298007200E-016 ) ) ;
#31 = DIRECTION ( 'NONE',  ( -1.000000000000000000, 0.0000000000000000000, 1.387778780781446900E-016 ) ) ;
#32 = DIRECTION ( 'NONE',  ( 0.0000000000000000000, 1.000000000000000000, 0.0000000000000000000 ) ) ;
#33 = SURFACE_SIDE_STYLE ('',( #176 ) ) ;
#34 = DIRECTION ( 'NONE',  ( -0.5735764363510433800, 0.8191520442889936900, 0.0000000000000000000 ) ) ;
#35 = CARTESIAN_POINT ( 'NONE',  ( 6.123233995736766300E-016, 890.0000000000000000, 5.000000000000000000 ) ) ;
#36 = APPLICATION_PROTOCOL_DEFINITION ( 'draft international standard', 'automotive_design', 1998, #92 ) ;
#37 = DIRECTION ( 'NONE',  ( 0.0000000000000000000, 0.0000000000000000000, -1.000000000000000000 ) ) ;
#38 = SURFACE_SIDE_STYLE ('',( #174 ) ) ;
#39 = CARTESIAN_POINT ( 'NONE',  ( 0.0000000000000000000, 0.0000000000000000000, 0.0000000000000000000 ) ) ;
#40 = FILL_AREA_STYLE ('',( #41 ) ) ;
#41 = FILL_AREA_STYLE_COLOUR ( '', #171 ) ;
#42 = DIRECTION ( 'NONE',  ( 0.0000000000000000000, 0.0000000000000000000, 1.000000000000000000 ) ) ;
#43 = CARTESIAN_POINT ( 'NONE',  ( 0.0000000000000000000, 890.0000000000000000, 0.0000000000000000000 ) ) ;
#44 =( NAMED_UNIT ( * ) SI_UNIT ( $, .STERADIAN. ) SOLID_ANGLE_UNIT ( ) );
#45 = VERTEX_POINT ( 'NONE', #35 ) ;
#46 =( LENGTH_UNIT ( ) NAMED_UNIT ( * ) SI_UNIT ( .MILLI., .METRE. ) );
#47 = DIRECTION ( 'NONE',  ( 0.0000000000000000000, 0.0000000000000000000, 1.000000000000000000 ) ) ;
#48 = DIRECTION ( 'NONE',  ( 0.0000000000000000000, 1.000000000000000000, 0.0000000000000000000 ) ) ;
#49 = DIRECTION ( 'NONE',  ( 0.0000000000000000000, 1.000000000000000000, 0.0000000000000000000 ) ) ;
#50 =( NAMED_UNIT ( * ) SI_UNIT ( $, .STERADIAN. ) SOLID_ANGLE_UNIT ( ) );
#51 = CARTESIAN_POINT ( 'NONE',  ( 7.792706909468569700, 914.5745613286698000, -1.479453933143079100E-015 ) ) ;
#52 =( NAMED_UNIT ( * ) PLANE_ANGLE_UNIT ( ) SI_UNIT ( $, .RADIAN. ) );
#53 = CARTESIAN_POINT ( 'NONE',  ( 0.0000000000000000000, 890.0000000000000000, 0.0000000000000000000 ) ) ;
#54 = CARTESIAN_POINT ( 'NONE',  ( 0.0000000000000000000, 890.0000000000000000, 0.0000000000000000000 ) ) ;
#55 = DIRECTION ( 'NONE',  ( -0.5735764363510433800, 0.8191520442889936900, 0.0000000000000000000 ) ) ;
#56 = CARTESIAN_POINT ( 'NONE',  ( -5.000000000000000900, 890.0000000000000000, 6.938893903907265800E-016 ) ) ;
#57 = DIRECTION ( 'NONE',  ( 0.0000000000000000000, 0.0000000000000000000, 1.000000000000000000 ) ) ;
#58 = SURFACE_STYLE_USAGE ( .BOTH. , #33 ) ;
#59 = APPLICATION_CONTEXT ( 'automotive_design' ) ;
#60 = APPLICATION_PROTOCOL_DEFINITION ( 'draft international standard', 'automotive_design', 1998, #59 ) ;
#61 = VERTEX_POINT ( 'NONE', #126 ) ;
#62 = FILL_AREA_STYLE ('',( #70 ) ) ;
#63 = CARTESIAN_POINT ( 'NONE',  ( 10.66058909122380500, 910.4788011072247400, -1.479453933143070400E-015 ) ) ;
#64 =( NAMED_UNIT ( * ) PLANE_ANGLE_UNIT ( ) SI_UNIT ( $, .RADIAN. ) );
#65 = DIRECTION ( 'NONE',  ( -0.0000000000000000000, -1.000000000000000000, -0.0000000000000000000 ) ) ;
#66 =( LENGTH_UNIT ( ) NAMED_UNIT ( * ) SI_UNIT ( .MILLI., .METRE. ) );
#67 =( NAMED_UNIT ( * ) PLANE_ANGLE_UNIT ( ) SI_UNIT ( $, .RADIAN. ) );
#68 =( NAMED_UNIT ( * ) SI_UNIT ( $, .STERADIAN. ) SOLID_ANGLE_UNIT ( ) );
#69 =( NAMED_UNIT ( * ) PLANE_ANGLE_UNIT ( ) SI_UNIT ( $, .RADIAN. ) );
#70 = FILL_AREA_STYLE_COLOUR ( '', #151 ) ;
#71 = CARTESIAN_POINT ( 'NONE',  ( 25.00000000000000000, 890.0000000000000000, -3.469446951953614200E-015 ) ) ;
#72 = CARTESIAN_POINT ( 'NONE',  ( 10.66058909122380500, 910.4788011072247400, -1.479453933143070400E-015 ) ) ;
#73 = DIRECTION ( 'NONE',  ( -0.0000000000000000000, -1.000000000000000000, -0.0000000000000000000 ) ) ;
#74 = DIRECTION ( 'NONE',  ( 0.0000000000000000000, 0.0000000000000000000, 1.000000000000000000 ) ) ;
#75 = CARTESIAN_POINT ( 'NONE',  ( 79.06063481609848500, 952.2691557938634300, 4.736512341718796500E-014 ) ) ;
#76 = DIRECTION ( 'NONE',  ( -1.000000000000000000, 0.0000000000000000000, 1.387778780781446900E-016 ) ) ;
#77 = VERTEX_POINT ( 'NONE', #51 ) ;
#78 = FILL_AREA_STYLE ('',( #28 ) ) ;
#79 = CARTESIAN_POINT ( 'NONE',  ( 13.52847127297902900, 906.3830408857797900, -8.671305335693940000E-016 ) ) ;
#80 =( LENGTH_UNIT ( ) NAMED_UNIT ( * ) SI_UNIT ( .MILLI., .METRE. ) );
#81 = FILL_AREA_STYLE ('',( #21 ) ) ;
#82 = CARTESIAN_POINT ( 'NONE',  ( 0.0000000000000000000, 890.0000000000000000, 0.0000000000000000000 ) ) ;
#83 = VERTEX_POINT ( 'NONE', #143 ) ;
#84 = CARTESIAN_POINT ( 'NONE',  ( 6.123233995736766300E-016, 890.0000000000000000, 5.000000000000000000 ) ) ;
#85 = CARTESIAN_POINT ( 'NONE',  ( 0.0000000000000000000, 0.0000000000000000000, 0.0000000000000000000 ) ) ;
#86 = SURFACE_STYLE_USAGE ( .BOTH. , #134 ) ;
#87 =( NAMED_UNIT ( * ) SI_UNIT ( $, .STERADIAN. ) SOLID_ANGLE_UNIT ( ) );
#88 =( NAMED_UNIT ( * ) PLANE_ANGLE_UNIT ( ) SI_UNIT ( $, .RADIAN. ) );
#89 = DIRECTION ( 'NONE',  ( -1.387778780781446900E-016, 0.0000000000000000000, -1.000000000000000000 ) ) ;
#90 = DIRECTION ( 'NONE',  ( 0.0000000000000000000, 0.0000000000000000000, 1.000000000000000000 ) ) ;
#91 =( LENGTH_UNIT ( ) NAMED_UNIT ( * ) SI_UNIT ( .MILLI., .METRE. ) );
#92 = APPLICATION_CONTEXT ( 'automotive_design' ) ;
#93 = CARTESIAN_POINT ( 'NONE',  ( 0.0000000000000000000, 890.0000000000000000, -5.000000000000000000 ) ) ;
#94 = CARTESIAN_POINT ( 'NONE',  ( 0.0000000000000000000, 890.0000000000000000, -5.000000000000000000 ) ) ;
#95 = DIRECTION ( 'NONE',  ( 0.8191520442889920200, 0.5735764363510457200, -1.136801825298007200E-016 ) ) ;
#96 = DIRECTION ( 'NONE',  ( 1.000000000000000000, 0.0000000000000000000, 0.0000000000000000000 ) ) ;
#97 = VERTEX_POINT ( 'NONE', #16 ) ;
#98 = DIRECTION ( 'NONE',  ( 0.0000000000000000000, 1.000000000000000000, 0.0000000000000000000 ) ) ;
#99 = DIRECTION ( 'NONE',  ( 0.8191520442889929100, 0.5735764363510444900, 6.029031743844666400E-016 ) ) ;
#100 = DIRECTION ( 'NONE',  ( -1.000000000000000000, 0.0000000000000000000, 1.387778780781446900E-016 ) ) ;
#101 = CARTESIAN_POINT ( 'NONE',  ( 25.00000000000000000, 890.0000000000000000, -3.469446951953614200E-015 ) ) ;
#102 = PLANE ( 'NONE',  #265 ) ;
#103 = DIRECTION ( 'NONE',  ( -1.387778780781446900E-016, 0.0000000000000000000, -1.000000000000000000 ) ) ;
#104 = DIRECTION ( 'NONE',  ( 0.0000000000000000000, 1.000000000000000000, 0.0000000000000000000 ) ) ;
#105 = DIRECTION ( 'NONE',  ( 0.8191520442889921300, 0.5735764363510457200, -1.136801825298007200E-016 ) ) ;
#106 = CARTESIAN_POINT ( 'NONE',  ( 76.19275263434326500, 956.3649160153083800, 4.675280001761428300E-014 ) ) ;
#107 = DIRECTION ( 'NONE',  ( 0.0000000000000000000, 0.0000000000000000000, 1.000000000000000000 ) ) ;
#108 = DIRECTION ( 'NONE',  ( 0.0000000000000000000, -0.0000000000000000000, 1.000000000000000000 ) ) ;
#109 = DIRECTION ( 'NONE',  ( -1.000000000000000000, 0.0000000000000000000, 1.387778780781446900E-016 ) ) ;
#110 = DIRECTION ( 'NONE',  ( 5.917815732572255000E-017, 1.136801825298007200E-016, 1.000000000000000000 ) ) ;
#111 = CARTESIAN_POINT ( 'NONE',  ( 0.0000000000000000000, 0.0000000000000000000, 0.0000000000000000000 ) ) ;
#112 = CARTESIAN_POINT ( 'NONE',  ( 7.792706909468581200, 914.5745613286698000, -1.479453933143070400E-015 ) ) ;
#113 = VERTEX_POINT ( 'NONE', #56 ) ;
#114 = VERTEX_POINT ( 'NONE', #75 ) ;
#115 = VERTEX_POINT ( 'NONE', #142 ) ;
#116 = PLANE ( 'NONE',  #276 ) ;
#117 = DIRECTION ( 'NONE',  ( -1.387778780781446900E-016, 0.0000000000000000000, -1.000000000000000000 ) ) ;
#118 = CARTESIAN_POINT ( 'NONE',  ( 0.0000000000000000000, 0.0000000000000000000, 0.0000000000000000000 ) ) ;
#119 = CARTESIAN_POINT ( 'NONE',  ( 25.00000000000000000, 890.0000000000000000, -2.857123552379937300E-015 ) ) ;
#120 =( NAMED_UNIT ( * ) PLANE_ANGLE_UNIT ( ) SI_UNIT ( $, .RADIAN. ) );
#121 = DIRECTION ( 'NONE',  ( -0.0000000000000000000, -1.000000000000000000, -0.0000000000000000000 ) ) ;
#122 = FILL_AREA_STYLE_COLOUR ( '', #146 ) ;
#123 =( LENGTH_UNIT ( ) NAMED_UNIT ( * ) SI_UNIT ( .MILLI., .METRE. ) );
#124 = SURFACE_SIDE_STYLE ('',( #200 ) ) ;
#125 = VERTEX_POINT ( 'NONE', #2 ) ;
#126 = CARTESIAN_POINT ( 'NONE',  ( 6.123233995736766300E-016, 0.0000000000000000000, 5.000000000000000000 ) ) ;
#127 =( NAMED_UNIT ( * ) PLANE_ANGLE_UNIT ( ) SI_UNIT ( $, .RADIAN. ) );
#128 =( NAMED_UNIT ( * ) SI_UNIT ( $, .STERADIAN. ) SOLID_ANGLE_UNIT ( ) );
#129 =( LENGTH_UNIT ( ) NAMED_UNIT ( * ) SI_UNIT ( .MILLI., .METRE. ) );
#130 = DIRECTION ( 'NONE',  ( 0.8191520442889929100, 0.5735764363510444900, 6.029031743844666400E-016 ) ) ;
#131 = PRODUCT_CONTEXT ( 'NONE', #59, 'mechanical' ) ;
#132 = SURFACE_STYLE_USAGE ( .BOTH. , #38 ) ;
#133 =( NAMED_UNIT ( * ) SI_UNIT ( $, .STERADIAN. ) SOLID_ANGLE_UNIT ( ) );
#134 = SURFACE_SIDE_STYLE ('',( #150 ) ) ;
#135 = DIRECTION ( 'NONE',  ( 0.0000000000000000000, 1.000000000000000000, 0.0000000000000000000 ) ) ;
#136 = DIRECTION ( 'NONE',  ( 0.0000000000000000000, 0.0000000000000000000, 1.000000000000000000 ) ) ;
#137 = SURFACE_SIDE_STYLE ('',( #158 ) ) ;
#138 = DIRECTION ( 'NONE',  ( 0.0000000000000000000, 0.0000000000000000000, -1.000000000000000000 ) ) ;
#139 = DIRECTION ( 'NONE',  ( 0.0000000000000000000, 0.0000000000000000000, 1.000000000000000000 ) ) ;
#140 = CARTESIAN_POINT ( 'NONE',  ( 10.66058909122380500, 910.4788011072247400, -1.479453933143070400E-015 ) ) ;
#141 = SURFACE_STYLE_USAGE ( .BOTH. , #137 ) ;
#142 = CARTESIAN_POINT ( 'NONE',  ( 73.32487045258803000, 960.4606762367533300, 4.675280001761427000E-014 ) ) ;
#143 = CARTESIAN_POINT ( 'NONE',  ( 0.0000000000000000000, 0.0000000000000000000, -5.000000000000000000 ) ) ;
#144 = EDGE_LOOP ( 'NONE', ( #263, #230, #266, #298 ) ) ;
#145 =( GEOMETRIC_REPRESENTATION_CONTEXT ( 3 ) GLOBAL_UNCERTAINTY_ASSIGNED_CONTEXT ( ( #315 ) ) GLOBAL_UNIT_ASSIGNED_CONTEXT ( ( #80, #120, #12 ) ) REPRESENTATION_CONTEXT ( 'NONE', 'WORKASPACE' ) );
#146 = COLOUR_RGB ( '',0.7921568627450980000, 0.8196078431372548800, 0.9333333333333333500 ) ;
#147 = STYLED_ITEM ( 'NONE', ( #152 ), #320 ) ;
#148 = PRESENTATION_STYLE_ASSIGNMENT (( #86 ) ) ;
#149 = STYLED_ITEM ( 'NONE', ( #148 ), #309 ) ;
#150 = SURFACE_STYLE_FILL_AREA ( #62 ) ;
#151 = COLOUR_RGB ( '',0.7921568627450980000, 0.8196078431372548800, 0.9333333333333333500 ) ;
#152 = PRESENTATION_STYLE_ASSIGNMENT (( #141 ) ) ;
#153 = TOROIDAL_SURFACE ( 'NONE', #262, 25.00000000000000000, 5.000000000000000000 ) ;
#154 = FACE_OUTER_BOUND ( 'NONE', #195, .T. ) ;
#155 = CYLINDRICAL_SURFACE ( 'NONE', #284, 5.000000000000010700 ) ;
#156 = CIRCLE ( 'NONE', #208, 5.000000000000000000 ) ;
#157 =( GEOMETRIC_REPRESENTATION_CONTEXT ( 3 ) GLOBAL_UNCERTAINTY_ASSIGNED_CONTEXT ( ( #317 ) ) GLOBAL_UNIT_ASSIGNED_CONTEXT ( ( #129, #88, #133 ) ) REPRESENTATION_CONTEXT ( 'NONE', 'WORKASPACE' ) );
#158 = SURFACE_STYLE_FILL_AREA ( #3 ) ;
#159 = PRESENTATION_STYLE_ASSIGNMENT (( #8 ) ) ;
#160 = STYLED_ITEM ( 'NONE', ( #159 ), #306 ) ;
#161 = FACE_OUTER_BOUND ( 'NONE', #264, .T. ) ;
#162 = FACE_OUTER_BOUND ( 'NONE', #240, .T. ) ;
#163 = COLOUR_RGB ( '',0.7921568627450980000, 0.8196078431372548800, 0.9333333333333333500 ) ;
#164 =( GEOMETRIC_REPRESENTATION_CONTEXT ( 3 ) GLOBAL_UNCERTAINTY_ASSIGNED_CONTEXT ( ( #318 ) ) GLOBAL_UNIT_ASSIGNED_CONTEXT ( ( #66, #127, #44 ) ) REPRESENTATION_CONTEXT ( 'NONE', 'WORKASPACE' ) );
#165 = FACE_OUTER_BOUND ( 'NONE', #181, .T. ) ;
#166 = CIRCLE ( 'NONE', #209, 30.00000000000000400 ) ;
#167 = PRESENTATION_STYLE_ASSIGNMENT (( #132 ) ) ;
#168 = STYLED_ITEM ( 'NONE', ( #167 ), #305 ) ;
#169 = CYLINDRICAL_SURFACE ( 'NONE', #273, 5.000000000000000000 ) ;
#170 = SURFACE_STYLE_FILL_AREA ( #81 ) ;
#171 = COLOUR_RGB ( '',0.7921568627450980000, 0.8196078431372548800, 0.9333333333333333500 ) ;
#172 = CYLINDRICAL_SURFACE ( 'NONE', #268, 5.000000000000000000 ) ;
#173 = TOROIDAL_SURFACE ( 'NONE', #226, 25.00000000000000000, 5.000000000000000000 ) ;
#174 = SURFACE_STYLE_FILL_AREA ( #40 ) ;
#175 =( GEOMETRIC_REPRESENTATION_CONTEXT ( 3 ) GLOBAL_UNCERTAINTY_ASSIGNED_CONTEXT ( ( #319 ) ) GLOBAL_UNIT_ASSIGNED_CONTEXT ( ( #91, #67, #87 ) ) REPRESENTATION_CONTEXT ( 'NONE', 'WORKASPACE' ) );
#176 = SURFACE_STYLE_FILL_AREA ( #78 ) ;
#177 =( GEOMETRIC_REPRESENTATION_CONTEXT ( 3 ) GLOBAL_UNCERTAINTY_ASSIGNED_CONTEXT ( ( #321 ) ) GLOBAL_UNIT_ASSIGNED_CONTEXT ( ( #46, #52, #68 ) ) REPRESENTATION_CONTEXT ( 'NONE', 'WORKASPACE' ) );
#178 =( GEOMETRIC_REPRESENTATION_CONTEXT ( 3 ) GLOBAL_UNCERTAINTY_ASSIGNED_CONTEXT ( ( #322 ) ) GLOBAL_UNIT_ASSIGNED_CONTEXT ( ( #123, #64, #50 ) ) REPRESENTATION_CONTEXT ( 'NONE', 'WORKASPACE' ) );
#179 = COLOUR_RGB ( '',0.7921568627450980000, 0.8196078431372548800, 0.9333333333333333500 ) ;
#180 = CLOSED_SHELL ( 'NONE', ( #304, #306, #303, #309, #307, #305, #308, #310 ) ) ;
#181 = EDGE_LOOP ( 'NONE', ( #237, #254, #260, #206, #286 ) ) ;
#182 = FACE_OUTER_BOUND ( 'NONE', #188, .T. ) ;
#183 = STYLED_ITEM ( 'NONE', ( #184 ), #316 ) ;
#184 = PRESENTATION_STYLE_ASSIGNMENT (( #58 ) ) ;
#185 = SHAPE_DEFINITION_REPRESENTATION ( #311, #316 ) ;
#186 = EDGE_LOOP ( 'NONE', ( #234, #258, #198, #257, #259 ) ) ;
#187 = EDGE_LOOP ( 'NONE', ( #297, #255, #269, #203, #261 ) ) ;
#188 = EDGE_LOOP ( 'NONE', ( #296, #292, #294, #290, #291 ) ) ;
#189 = CIRCLE ( 'NONE', #214, 5.000000000000000000 ) ;
#190 = MECHANICAL_DESIGN_GEOMETRIC_PRESENTATION_REPRESENTATION (  '', ( #168 ), #164 ) ;
#191 = CIRCLE ( 'NONE', #202, 5.000000000000000000 ) ;
#192 = LINE ( 'NONE', #93, #277 ) ;
#193 = EDGE_CURVE ( 'NONE', #61, #83, #191, .T. ) ;
#194 = CIRCLE ( 'NONE', #241, 20.00000000000000000 ) ;
#195 = EDGE_LOOP ( 'NONE', ( #256, #236 ) ) ;
#196 = PRODUCT_DEFINITION ( 'UNKNOWN', '', #219, #312 ) ;
#197 = AXIS2_PLACEMENT_3D ( 'NONE', #140, #30, #107 ) ;
#198 = ORIENTED_EDGE ( 'NONE', *, *, #246, .F. ) ;
#199 = CYLINDRICAL_SURFACE ( 'NONE', #228, 5.000000000000010700 ) ;
#200 = SURFACE_STYLE_FILL_AREA ( #15 ) ;
#201 = VECTOR ( 'NONE', #99, 1000.000000000000000 ) ;
#202 = AXIS2_PLACEMENT_3D ( 'NONE', #85, #98, #14 ) ;
#203 = ORIENTED_EDGE ( 'NONE', *, *, #251, .F. ) ;
#204 = ORIENTED_EDGE ( 'NONE', *, *, #302, .T. ) ;
#205 = CIRCLE ( 'NONE', #197, 5.000000000000000000 ) ;
#206 = ORIENTED_EDGE ( 'NONE', *, *, #218, .T. ) ;
#207 = PRESENTATION_LAYER_ASSIGNMENT (  '', '', ( #287 ) ) ;
#208 = AXIS2_PLACEMENT_3D ( 'NONE', #82, #104, #42 ) ;
#209 = AXIS2_PLACEMENT_3D ( 'NONE', #101, #89, #76 ) ;
#210 = EDGE_CURVE ( 'NONE', #77, #115, #295, .T. ) ;
#211 = ORIENTED_EDGE ( 'NONE', *, *, #250, .T. ) ;
#213 = AXIS2_PLACEMENT_3D ( 'NONE', #10, #48, #27 ) ;
#212 =( GEOMETRIC_REPRESENTATION_CONTEXT ( 3 ) GLOBAL_UNCERTAINTY_ASSIGNED_CONTEXT ( ( #314 ) ) GLOBAL_UNIT_ASSIGNED_CONTEXT ( ( #26, #69, #128 ) ) REPRESENTATION_CONTEXT ( 'NONE', 'WORKASPACE' ) );
#214 = AXIS2_PLACEMENT_3D ( 'NONE', #4, #19, #90 ) ;
#215 = MECHANICAL_DESIGN_GEOMETRIC_PRESENTATION_REPRESENTATION (  '', ( #287 ), #175 ) ;
#216 = MECHANICAL_DESIGN_GEOMETRIC_PRESENTATION_REPRESENTATION (  '', ( #183 ), #212 ) ;
#217 = EDGE_CURVE ( 'NONE', #113, #45, #283, .T. ) ;
#218 = EDGE_CURVE ( 'NONE', #125, #97, #194, .T. ) ;
#219 = PRODUCT_DEFINITION_FORMATION_WITH_SPECIFIED_SOURCE ( 'ANY', '', #313, .NOT_KNOWN. ) ;
#220 = AXIS2_PLACEMENT_3D ( 'NONE', #23, #135, #74 ) ;
#221 = PRESENTATION_LAYER_ASSIGNMENT (  '', '', ( #183 ) ) ;
#222 = EDGE_CURVE ( 'NONE', #97, #77, #231, .T. ) ;
#223 = AXIS2_PLACEMENT_3D ( 'NONE', #118, #32, #29 ) ;
#224 = PRESENTATION_LAYER_ASSIGNMENT (  '', '', ( #168 ) ) ;
#225 = EDGE_CURVE ( 'NONE', #83, #61, #289, .T. ) ;
#226 = AXIS2_PLACEMENT_3D ( 'NONE', #25, #20, #109 ) ;
#227 = PRODUCT_RELATED_PRODUCT_CATEGORY ( 'part', '', ( #313 ) ) ;
#228 = AXIS2_PLACEMENT_3D ( 'NONE', #63, #13, #55 ) ;
#229 = PRESENTATION_LAYER_ASSIGNMENT (  '', '', ( #160 ) ) ;
#230 = ORIENTED_EDGE ( 'NONE', *, *, #252, .T. ) ;
#231 = CIRCLE ( 'NONE', #245, 5.000000000000000000 ) ;
#232 = PRESENTATION_STYLE_ASSIGNMENT (( #17 ) ) ;
#233 = LINE ( 'NONE', #84, #288 ) ;
#234 = ORIENTED_EDGE ( 'NONE', *, *, #247, .F. ) ;
#235 = ORIENTED_EDGE ( 'NONE', *, *, #210, .T. ) ;
#236 = ORIENTED_EDGE ( 'NONE', *, *, #193, .F. ) ;
#237 = ORIENTED_EDGE ( 'NONE', *, *, #242, .F. ) ;
#238 = AXIS2_PLACEMENT_3D ( 'NONE', #54, #49, #47 ) ;
#239 = ORIENTED_EDGE ( 'NONE', *, *, #302, .F. ) ;
#240 = EDGE_LOOP ( 'NONE', ( #299, #300, #235, #239 ) ) ;
#241 = AXIS2_PLACEMENT_3D ( 'NONE', #119, #117, #31 ) ;
#242 = EDGE_CURVE ( 'NONE', #113, #77, #166, .T. ) ;
#243 = LINE ( 'NONE', #79, #201 ) ;
#244 = AXIS2_PLACEMENT_3D ( 'NONE', #106, #95, #136 ) ;
#245 = AXIS2_PLACEMENT_3D ( 'NONE', #6, #5, #57 ) ;
#246 = EDGE_CURVE ( 'NONE', #9, #113, #279, .T. ) ;
#247 = EDGE_CURVE ( 'NONE', #45, #61, #233, .T. ) ;
#248 = EDGE_CURVE ( 'NONE', #45, #125, #280, .T. ) ;
#249 = EDGE_CURVE ( 'NONE', #125, #9, #156, .T. ) ;
#250 = EDGE_CURVE ( 'NONE', #115, #114, #189, .T. ) ;
#251 = EDGE_CURVE ( 'NONE', #9, #83, #192, .T. ) ;
#252 = EDGE_CURVE ( 'NONE', #97, #114, #243, .T. ) ;
#253 = EDGE_CURVE ( 'NONE', #77, #97, #205, .T. ) ;
#254 = ORIENTED_EDGE ( 'NONE', *, *, #217, .T. ) ;
#255 = ORIENTED_EDGE ( 'NONE', *, *, #247, .T. ) ;
#256 = ORIENTED_EDGE ( 'NONE', *, *, #225, .F. ) ;
#257 = ORIENTED_EDGE ( 'NONE', *, *, #251, .T. ) ;
#258 = ORIENTED_EDGE ( 'NONE', *, *, #217, .F. ) ;
#259 = ORIENTED_EDGE ( 'NONE', *, *, #225, .T. ) ;
#260 = ORIENTED_EDGE ( 'NONE', *, *, #248, .T. ) ;
#261 = ORIENTED_EDGE ( 'NONE', *, *, #249, .F. ) ;
#262 = AXIS2_PLACEMENT_3D ( 'NONE', #71, #103, #100 ) ;
#263 = ORIENTED_EDGE ( 'NONE', *, *, #253, .T. ) ;
#264 = EDGE_LOOP ( 'NONE', ( #211, #204 ) ) ;
#265 = AXIS2_PLACEMENT_3D ( 'NONE', #111, #1, #108 ) ;
#266 = ORIENTED_EDGE ( 'NONE', *, *, #250, .F. ) ;
#267 = MECHANICAL_DESIGN_GEOMETRIC_PRESENTATION_REPRESENTATION (  '', ( #160 ), #157 ) ;
#268 = AXIS2_PLACEMENT_3D ( 'NONE', #43, #24, #138 ) ;
#269 = ORIENTED_EDGE ( 'NONE', *, *, #193, .T. ) ;
#270 = COLOUR_RGB ( '',0.7921568627450980000, 0.8196078431372548800, 0.9333333333333333500 ) ;
#271 = PRESENTATION_LAYER_ASSIGNMENT (  '', '', ( #147 ) ) ;
#272 = MECHANICAL_DESIGN_GEOMETRIC_PRESENTATION_REPRESENTATION (  '', ( #149 ), #145 ) ;
#273 = AXIS2_PLACEMENT_3D ( 'NONE', #53, #73, #37 ) ;
#274 = CIRCLE ( 'NONE', #244, 5.000000000000000000 ) ;
#275 = PRESENTATION_LAYER_ASSIGNMENT (  '', '', ( #149 ) ) ;
#276 = AXIS2_PLACEMENT_3D ( 'NONE', #11, #105, #110 ) ;
#277 = VECTOR ( 'NONE', #65, 1000.000000000000000 ) ;
#278 = FACE_OUTER_BOUND ( 'NONE', #186, .T. ) ;
#279 = CIRCLE ( 'NONE', #213, 5.000000000000000000 ) ;
#280 = CIRCLE ( 'NONE', #238, 5.000000000000000000 ) ;
#281 = FACE_OUTER_BOUND ( 'NONE', #144, .T. ) ;
#282 = AXIS2_PLACEMENT_3D ( 'NONE', #39, #139, #96 ) ;
#283 = CIRCLE ( 'NONE', #220, 5.000000000000000000 ) ;
#284 = AXIS2_PLACEMENT_3D ( 'NONE', #72, #18, #34 ) ;
#285 = FACE_OUTER_BOUND ( 'NONE', #187, .T. ) ;
#286 = ORIENTED_EDGE ( 'NONE', *, *, #253, .F. ) ;
#287 = STYLED_ITEM ( 'NONE', ( #232 ), #303 ) ;
#288 = VECTOR ( 'NONE', #121, 1000.000000000000000 ) ;
#289 = CIRCLE ( 'NONE', #223, 5.000000000000000000 ) ;
#290 = ORIENTED_EDGE ( 'NONE', *, *, #218, .F. ) ;
#291 = ORIENTED_EDGE ( 'NONE', *, *, #249, .T. ) ;
#292 = ORIENTED_EDGE ( 'NONE', *, *, #242, .T. ) ;
#293 = VECTOR ( 'NONE', #130, 1000.000000000000000 ) ;
#294 = ORIENTED_EDGE ( 'NONE', *, *, #222, .F. ) ;
#295 = LINE ( 'NONE', #112, #293 ) ;
#296 = ORIENTED_EDGE ( 'NONE', *, *, #246, .T. ) ;
#297 = ORIENTED_EDGE ( 'NONE', *, *, #248, .F. ) ;
#298 = ORIENTED_EDGE ( 'NONE', *, *, #210, .F. ) ;
#299 = ORIENTED_EDGE ( 'NONE', *, *, #252, .F. ) ;
#300 = ORIENTED_EDGE ( 'NONE', *, *, #222, .T. ) ;
#301 = MECHANICAL_DESIGN_GEOMETRIC_PRESENTATION_REPRESENTATION (  '', ( #147 ), #177 ) ;
#302 = EDGE_CURVE ( 'NONE', #114, #115, #274, .T. ) ;
#303 = ADVANCED_FACE ( 'NONE', ( #281 ), #199, .T. ) ;
#304 = ADVANCED_FACE ( 'NONE', ( #182 ), #173, .T. ) ;
#305 = ADVANCED_FACE ( 'NONE', ( #278 ), #172, .T. ) ;
#306 = ADVANCED_FACE ( 'NONE', ( #285 ), #169, .T. ) ;
#307 = ADVANCED_FACE ( 'NONE', ( #165 ), #153, .T. ) ;
#308 = ADVANCED_FACE ( 'NONE', ( #161 ), #116, .T. ) ;
#309 = ADVANCED_FACE ( 'NONE', ( #162 ), #155, .T. ) ;
#310 = ADVANCED_FACE ( 'NONE', ( #154 ), #102, .F. ) ;
#311 = PRODUCT_DEFINITION_SHAPE ( 'NONE', 'NONE',  #196 ) ;
#312 = PRODUCT_DEFINITION_CONTEXT ( 'detailed design', #92, 'design' ) ;
#313 = PRODUCT ( 'Barre gouvernail', 'Barre gouvernail', '', ( #131 ) ) ;
#314 = UNCERTAINTY_MEASURE_WITH_UNIT (LENGTH_MEASURE( 1.000000000000000100E-005 ), #26, 'distance_accuracy_value', 'NONE');
#315 = UNCERTAINTY_MEASURE_WITH_UNIT (LENGTH_MEASURE( 1.000000000000000100E-005 ), #80, 'distance_accuracy_value', 'NONE');
#316 = ADVANCED_BREP_SHAPE_REPRESENTATION ( 'Barre gouvernail', ( #320, #282 ), #178 ) ;
#317 = UNCERTAINTY_MEASURE_WITH_UNIT (LENGTH_MEASURE( 1.000000000000000100E-005 ), #129, 'distance_accuracy_value', 'NONE');
#318 = UNCERTAINTY_MEASURE_WITH_UNIT (LENGTH_MEASURE( 1.000000000000000100E-005 ), #66, 'distance_accuracy_value', 'NONE');
#319 = UNCERTAINTY_MEASURE_WITH_UNIT (LENGTH_MEASURE( 1.000000000000000100E-005 ), #91, 'distance_accuracy_value', 'NONE');
#320 = MANIFOLD_SOLID_BREP ( 'Balayage2', #180 ) ;
#321 = UNCERTAINTY_MEASURE_WITH_UNIT (LENGTH_MEASURE( 1.000000000000000100E-005 ), #46, 'distance_accuracy_value', 'NONE');
#322 = UNCERTAINTY_MEASURE_WITH_UNIT (LENGTH_MEASURE( 1.000000000000000100E-005 ), #123, 'distance_accuracy_value', 'NONE');
ENDSEC;
END-ISO-10303-21;
