ISO-10303-21;
HEADER;
FILE_DESCRIPTION(('CATIA V5 STEP Exchange'),'2;1');

FILE_NAME('D:\\quentin\\bricolage\\projet char-latant\\Mk0.1\\CAO\\chassis\\suspensions\\BLOC DE SUSPENSION ASSEMBLE\\BLOC DE SUSPENSION.stp','2020-02-04T16:53:04+00:00',('none'),('none'),'CATIA Version 5 Release 20 GA (IN-10)','CATIA V5 STEP AP203','none');

FILE_SCHEMA(('CONFIG_CONTROL_DESIGN'));

ENDSEC;
/* file written by CATIA V5R20 */
DATA;
#5=PRODUCT('BLOC DE SUSPENSION','','',(#2)) ;
#1=APPLICATION_CONTEXT('configuration controlled 3D design of mechanical parts and assemblies') ;
#14=PRODUCT_DEFINITION('',' ',#6,#3) ;
#16=SECURITY_CLASSIFICATION(' ',' ',#15) ;
#15=SECURITY_CLASSIFICATION_LEVEL('unclassified') ;
#47=CARTESIAN_POINT(' ',(0.,0.,0.)) ;
#52=CARTESIAN_POINT('Axis2P3D Location',(-40.,0.,-1.)) ;
#57=CARTESIAN_POINT('Line Origine',(-40.,0.,-1.)) ;
#61=CARTESIAN_POINT('Vertex',(-40.,-25.,-1.)) ;
#63=CARTESIAN_POINT('Vertex',(-40.,25.,-1.)) ;
#66=CARTESIAN_POINT('Line Origine',(-40.,-25.,5.5)) ;
#70=CARTESIAN_POINT('Vertex',(-40.,-25.,12.)) ;
#73=CARTESIAN_POINT('Line Origine',(-40.,0.,12.)) ;
#77=CARTESIAN_POINT('Vertex',(-40.,25.,12.)) ;
#80=CARTESIAN_POINT('Line Origine',(-40.,25.,5.5)) ;
#92=CARTESIAN_POINT('Axis2P3D Location',(-40.,0.,12.)) ;
#97=CARTESIAN_POINT('Line Origine',(0.,-25.,12.)) ;
#101=CARTESIAN_POINT('Vertex',(40.,-25.,12.)) ;
#104=CARTESIAN_POINT('Line Origine',(40.,0.,12.)) ;
#108=CARTESIAN_POINT('Vertex',(40.,25.,12.)) ;
#111=CARTESIAN_POINT('Line Origine',(0.,25.,12.)) ;
#123=CARTESIAN_POINT('Axis2P3D Location',(40.,0.,12.)) ;
#128=CARTESIAN_POINT('Line Origine',(40.,-25.,5.5)) ;
#132=CARTESIAN_POINT('Vertex',(40.,-25.,-1.)) ;
#135=CARTESIAN_POINT('Line Origine',(40.,0.,-1.)) ;
#139=CARTESIAN_POINT('Vertex',(40.,25.,-1.)) ;
#142=CARTESIAN_POINT('Line Origine',(40.,25.,5.5)) ;
#154=CARTESIAN_POINT('Axis2P3D Location',(-22.5,0.,-13.)) ;
#159=CARTESIAN_POINT('Line Origine',(22.5,0.,-13.)) ;
#163=CARTESIAN_POINT('Vertex',(22.5,-25.,-13.)) ;
#165=CARTESIAN_POINT('Vertex',(22.5,25.,-13.)) ;
#168=CARTESIAN_POINT('Line Origine',(3.5527136788E-015,-25.,-13.)) ;
#172=CARTESIAN_POINT('Vertex',(-22.5,-25.,-13.)) ;
#175=CARTESIAN_POINT('Line Origine',(-22.5,0.,-13.)) ;
#179=CARTESIAN_POINT('Vertex',(-22.5,25.,-13.)) ;
#182=CARTESIAN_POINT('Line Origine',(3.5527136788E-015,25.,-13.)) ;
#194=CARTESIAN_POINT('Axis2P3D Location',(-10.,0.,0.)) ;
#199=CARTESIAN_POINT('Line Origine',(-16.,0.,0.)) ;
#203=CARTESIAN_POINT('Vertex',(-16.,25.,0.)) ;
#205=CARTESIAN_POINT('Vertex',(-16.,-25.,0.)) ;
#208=CARTESIAN_POINT('Axis2P3D Location',(-10.,25.,0.)) ;
#212=CARTESIAN_POINT('Vertex',(-4.,25.,7.34763812293E-016)) ;
#215=CARTESIAN_POINT('Line Origine',(-4.,0.,7.34763812293E-016)) ;
#219=CARTESIAN_POINT('Vertex',(-4.,-25.,7.34763812293E-016)) ;
#222=CARTESIAN_POINT('Axis2P3D Location',(-10.,-25.,0.)) ;
#234=CARTESIAN_POINT('Axis2P3D Location',(-10.,25.,0.)) ;
#239=CARTESIAN_POINT('Axis2P3D Location',(-10.,-25.,0.)) ;
#251=CARTESIAN_POINT('Axis2P3D Location',(10.,0.,0.)) ;
#256=CARTESIAN_POINT('Line Origine',(6.,0.,0.)) ;
#260=CARTESIAN_POINT('Vertex',(6.,25.,0.)) ;
#262=CARTESIAN_POINT('Vertex',(6.,-25.,0.)) ;
#265=CARTESIAN_POINT('Axis2P3D Location',(10.,25.,0.)) ;
#269=CARTESIAN_POINT('Vertex',(14.,25.,4.89842541529E-016)) ;
#272=CARTESIAN_POINT('Line Origine',(14.,0.,4.89842541529E-016)) ;
#276=CARTESIAN_POINT('Vertex',(14.,-25.,4.89842541529E-016)) ;
#279=CARTESIAN_POINT('Axis2P3D Location',(10.,-25.,0.)) ;
#291=CARTESIAN_POINT('Axis2P3D Location',(10.,25.,0.)) ;
#296=CARTESIAN_POINT('Axis2P3D Location',(10.,-25.,0.)) ;
#308=CARTESIAN_POINT('Axis2P3D Location',(-22.5,0.,-1.)) ;
#313=CARTESIAN_POINT('Line Origine',(-32.25,-25.,-1.)) ;
#317=CARTESIAN_POINT('Vertex',(-24.5,-25.,-1.)) ;
#320=CARTESIAN_POINT('Line Origine',(-32.25,25.,-1.)) ;
#324=CARTESIAN_POINT('Vertex',(-24.5,25.,-1.)) ;
#327=CARTESIAN_POINT('Line Origine',(-24.5,-3.5527136788E-015,-1.)) ;
#339=CARTESIAN_POINT('Axis2P3D Location',(-22.5,0.,-1.)) ;
#344=CARTESIAN_POINT('Line Origine',(-22.5,3.5527136788E-015,-3.)) ;
#348=CARTESIAN_POINT('Vertex',(-22.5,25.,-3.)) ;
#350=CARTESIAN_POINT('Vertex',(-22.5,-25.,-3.)) ;
#353=CARTESIAN_POINT('Line Origine',(-22.5,25.,-8.)) ;
#358=CARTESIAN_POINT('Line Origine',(-22.5,-25.,-8.)) ;
#370=CARTESIAN_POINT('Axis2P3D Location',(-24.5,0.,-3.)) ;
#375=CARTESIAN_POINT('Axis2P3D Location',(-24.5,25.,-3.)) ;
#380=CARTESIAN_POINT('Axis2P3D Location',(-24.5,-25.,-3.)) ;
#392=CARTESIAN_POINT('Axis2P3D Location',(0.,25.,0.)) ;
#397=CARTESIAN_POINT('Axis2P3D Location',(24.5,25.,-3.)) ;
#401=CARTESIAN_POINT('Vertex',(24.5,25.,-1.)) ;
#403=CARTESIAN_POINT('Vertex',(22.5,25.,-3.)) ;
#406=CARTESIAN_POINT('Line Origine',(22.5,25.,-8.)) ;
#411=CARTESIAN_POINT('Line Origine',(32.25,25.,-1.)) ;
#437=CARTESIAN_POINT('Axis2P3D Location',(0.,-25.,0.)) ;
#442=CARTESIAN_POINT('Line Origine',(32.25,-25.,-1.)) ;
#446=CARTESIAN_POINT('Vertex',(24.5,-25.,-1.)) ;
#449=CARTESIAN_POINT('Line Origine',(22.5,-25.,-8.)) ;
#453=CARTESIAN_POINT('Vertex',(22.5,-25.,-3.)) ;
#456=CARTESIAN_POINT('Axis2P3D Location',(24.5,-25.,-3.)) ;
#482=CARTESIAN_POINT('Line Origine',(24.5,3.5527136788E-015,-1.)) ;
#494=CARTESIAN_POINT('Axis2P3D Location',(22.5,0.,-13.)) ;
#499=CARTESIAN_POINT('Line Origine',(22.5,-3.5527136788E-015,-3.)) ;
#511=CARTESIAN_POINT('Axis2P3D Location',(24.5,0.,-3.)) ;
#53=DIRECTION('Axis2P3D Direction',(-1.,0.,0.)) ;
#54=DIRECTION('Axis2P3D XDirection',(0.,0.,1.)) ;
#58=DIRECTION('Vector Direction',(0.,1.,0.)) ;
#67=DIRECTION('Vector Direction',(0.,0.,1.)) ;
#74=DIRECTION('Vector Direction',(0.,1.,0.)) ;
#81=DIRECTION('Vector Direction',(0.,0.,1.)) ;
#93=DIRECTION('Axis2P3D Direction',(-0.,0.,1.)) ;
#94=DIRECTION('Axis2P3D XDirection',(1.,-0.,0.)) ;
#98=DIRECTION('Vector Direction',(1.,0.,0.)) ;
#105=DIRECTION('Vector Direction',(0.,1.,0.)) ;
#112=DIRECTION('Vector Direction',(1.,0.,0.)) ;
#124=DIRECTION('Axis2P3D Direction',(1.,0.,-0.)) ;
#125=DIRECTION('Axis2P3D XDirection',(-0.,0.,-1.)) ;
#129=DIRECTION('Vector Direction',(0.,0.,-1.)) ;
#136=DIRECTION('Vector Direction',(0.,1.,0.)) ;
#143=DIRECTION('Vector Direction',(0.,0.,-1.)) ;
#155=DIRECTION('Axis2P3D Direction',(-0.,0.,1.)) ;
#156=DIRECTION('Axis2P3D XDirection',(1.,-0.,0.)) ;
#160=DIRECTION('Vector Direction',(0.,1.,0.)) ;
#169=DIRECTION('Vector Direction',(1.,0.,0.)) ;
#176=DIRECTION('Vector Direction',(0.,1.,0.)) ;
#183=DIRECTION('Vector Direction',(1.,0.,0.)) ;
#195=DIRECTION('Axis2P3D Direction',(0.,1.,0.)) ;
#196=DIRECTION('Axis2P3D XDirection',(-1.,0.,0.)) ;
#200=DIRECTION('Vector Direction',(0.,1.,0.)) ;
#209=DIRECTION('Axis2P3D Direction',(0.,1.,0.)) ;
#216=DIRECTION('Vector Direction',(0.,1.,0.)) ;
#223=DIRECTION('Axis2P3D Direction',(0.,1.,0.)) ;
#235=DIRECTION('Axis2P3D Direction',(0.,1.,0.)) ;
#240=DIRECTION('Axis2P3D Direction',(0.,1.,0.)) ;
#252=DIRECTION('Axis2P3D Direction',(0.,1.,0.)) ;
#253=DIRECTION('Axis2P3D XDirection',(-1.,0.,0.)) ;
#257=DIRECTION('Vector Direction',(0.,1.,0.)) ;
#266=DIRECTION('Axis2P3D Direction',(0.,1.,0.)) ;
#273=DIRECTION('Vector Direction',(0.,1.,0.)) ;
#280=DIRECTION('Axis2P3D Direction',(0.,1.,0.)) ;
#292=DIRECTION('Axis2P3D Direction',(0.,1.,0.)) ;
#297=DIRECTION('Axis2P3D Direction',(0.,1.,0.)) ;
#309=DIRECTION('Axis2P3D Direction',(0.,0.,-1.)) ;
#310=DIRECTION('Axis2P3D XDirection',(-1.,0.,0.)) ;
#314=DIRECTION('Vector Direction',(-1.,0.,0.)) ;
#321=DIRECTION('Vector Direction',(-1.,0.,0.)) ;
#328=DIRECTION('Vector Direction',(0.,1.,0.)) ;
#340=DIRECTION('Axis2P3D Direction',(1.,0.,-0.)) ;
#341=DIRECTION('Axis2P3D XDirection',(-0.,0.,-1.)) ;
#345=DIRECTION('Vector Direction',(0.,1.,0.)) ;
#354=DIRECTION('Vector Direction',(0.,0.,-1.)) ;
#359=DIRECTION('Vector Direction',(0.,0.,-1.)) ;
#371=DIRECTION('Axis2P3D Direction',(0.,1.,0.)) ;
#372=DIRECTION('Axis2P3D XDirection',(0.,0.,1.)) ;
#376=DIRECTION('Axis2P3D Direction',(0.,1.,0.)) ;
#381=DIRECTION('Axis2P3D Direction',(0.,1.,0.)) ;
#393=DIRECTION('Axis2P3D Direction',(0.,1.,-0.)) ;
#394=DIRECTION('Axis2P3D XDirection',(-1.,0.,0.)) ;
#398=DIRECTION('Axis2P3D Direction',(0.,1.,-0.)) ;
#407=DIRECTION('Vector Direction',(0.,0.,1.)) ;
#412=DIRECTION('Vector Direction',(-1.,0.,0.)) ;
#438=DIRECTION('Axis2P3D Direction',(0.,1.,-0.)) ;
#439=DIRECTION('Axis2P3D XDirection',(-1.,0.,0.)) ;
#443=DIRECTION('Vector Direction',(-1.,0.,0.)) ;
#450=DIRECTION('Vector Direction',(0.,0.,1.)) ;
#457=DIRECTION('Axis2P3D Direction',(0.,1.,-0.)) ;
#483=DIRECTION('Vector Direction',(0.,1.,0.)) ;
#495=DIRECTION('Axis2P3D Direction',(-1.,0.,0.)) ;
#496=DIRECTION('Axis2P3D XDirection',(0.,0.,1.)) ;
#500=DIRECTION('Vector Direction',(0.,1.,0.)) ;
#512=DIRECTION('Axis2P3D Direction',(0.,1.,0.)) ;
#513=DIRECTION('Axis2P3D XDirection',(-1.,0.,0.)) ;
#48=AXIS2_PLACEMENT_3D(' ',#47,$,$) ;
#55=AXIS2_PLACEMENT_3D('Plane Axis2P3D',#52,#53,#54) ;
#95=AXIS2_PLACEMENT_3D('Plane Axis2P3D',#92,#93,#94) ;
#126=AXIS2_PLACEMENT_3D('Plane Axis2P3D',#123,#124,#125) ;
#157=AXIS2_PLACEMENT_3D('Plane Axis2P3D',#154,#155,#156) ;
#197=AXIS2_PLACEMENT_3D('Cylinder Axis2P3D',#194,#195,#196) ;
#210=AXIS2_PLACEMENT_3D('Circle Axis2P3D',#208,#209,$) ;
#224=AXIS2_PLACEMENT_3D('Circle Axis2P3D',#222,#223,$) ;
#236=AXIS2_PLACEMENT_3D('Circle Axis2P3D',#234,#235,$) ;
#241=AXIS2_PLACEMENT_3D('Circle Axis2P3D',#239,#240,$) ;
#254=AXIS2_PLACEMENT_3D('Cylinder Axis2P3D',#251,#252,#253) ;
#267=AXIS2_PLACEMENT_3D('Circle Axis2P3D',#265,#266,$) ;
#281=AXIS2_PLACEMENT_3D('Circle Axis2P3D',#279,#280,$) ;
#293=AXIS2_PLACEMENT_3D('Circle Axis2P3D',#291,#292,$) ;
#298=AXIS2_PLACEMENT_3D('Circle Axis2P3D',#296,#297,$) ;
#311=AXIS2_PLACEMENT_3D('Plane Axis2P3D',#308,#309,#310) ;
#342=AXIS2_PLACEMENT_3D('Plane Axis2P3D',#339,#340,#341) ;
#373=AXIS2_PLACEMENT_3D('Cylinder Axis2P3D',#370,#371,#372) ;
#377=AXIS2_PLACEMENT_3D('Circle Axis2P3D',#375,#376,$) ;
#382=AXIS2_PLACEMENT_3D('Circle Axis2P3D',#380,#381,$) ;
#395=AXIS2_PLACEMENT_3D('Plane Axis2P3D',#392,#393,#394) ;
#399=AXIS2_PLACEMENT_3D('Circle Axis2P3D',#397,#398,$) ;
#440=AXIS2_PLACEMENT_3D('Plane Axis2P3D',#437,#438,#439) ;
#458=AXIS2_PLACEMENT_3D('Circle Axis2P3D',#456,#457,$) ;
#497=AXIS2_PLACEMENT_3D('Plane Axis2P3D',#494,#495,#496) ;
#514=AXIS2_PLACEMENT_3D('Cylinder Axis2P3D',#511,#512,#513) ;
#40=PRODUCT_DEFINITION_SHAPE(' ',' ',#14) ;
#31=APPROVAL_PERSON_ORGANIZATION(#25,#21,#19) ;
#25=PERSON_AND_ORGANIZATION(#22,#23) ;
#22=PERSON(' ',' ',' ',$,$,$) ;
#23=ORGANIZATION(' ',' ',' ') ;
#21=APPROVAL(#20,' ') ;
#20=APPROVAL_STATUS('not_yet_approved') ;
#19=APPROVAL_ROLE('APPROVER') ;
#13=DATE_AND_TIME(#11,#12) ;
#12=LOCAL_TIME(17,53,4.,#10) ;
#10=COORDINATED_UNIVERSAL_TIME_OFFSET(0,0,.AHEAD.) ;
#86=ORIENTED_EDGE('',*,*,#65,.F.) ;
#87=ORIENTED_EDGE('',*,*,#72,.T.) ;
#88=ORIENTED_EDGE('',*,*,#79,.T.) ;
#89=ORIENTED_EDGE('',*,*,#84,.F.) ;
#117=ORIENTED_EDGE('',*,*,#79,.F.) ;
#118=ORIENTED_EDGE('',*,*,#103,.T.) ;
#119=ORIENTED_EDGE('',*,*,#110,.T.) ;
#120=ORIENTED_EDGE('',*,*,#115,.F.) ;
#148=ORIENTED_EDGE('',*,*,#110,.F.) ;
#149=ORIENTED_EDGE('',*,*,#134,.T.) ;
#150=ORIENTED_EDGE('',*,*,#141,.T.) ;
#151=ORIENTED_EDGE('',*,*,#146,.F.) ;
#188=ORIENTED_EDGE('',*,*,#167,.F.) ;
#189=ORIENTED_EDGE('',*,*,#174,.T.) ;
#190=ORIENTED_EDGE('',*,*,#181,.T.) ;
#191=ORIENTED_EDGE('',*,*,#186,.F.) ;
#228=ORIENTED_EDGE('',*,*,#207,.F.) ;
#229=ORIENTED_EDGE('',*,*,#214,.T.) ;
#230=ORIENTED_EDGE('',*,*,#221,.T.) ;
#231=ORIENTED_EDGE('',*,*,#226,.F.) ;
#245=ORIENTED_EDGE('',*,*,#221,.F.) ;
#246=ORIENTED_EDGE('',*,*,#238,.T.) ;
#247=ORIENTED_EDGE('',*,*,#207,.T.) ;
#248=ORIENTED_EDGE('',*,*,#243,.F.) ;
#285=ORIENTED_EDGE('',*,*,#264,.F.) ;
#286=ORIENTED_EDGE('',*,*,#271,.T.) ;
#287=ORIENTED_EDGE('',*,*,#278,.T.) ;
#288=ORIENTED_EDGE('',*,*,#283,.F.) ;
#302=ORIENTED_EDGE('',*,*,#278,.F.) ;
#303=ORIENTED_EDGE('',*,*,#295,.T.) ;
#304=ORIENTED_EDGE('',*,*,#264,.T.) ;
#305=ORIENTED_EDGE('',*,*,#300,.F.) ;
#333=ORIENTED_EDGE('',*,*,#319,.T.) ;
#334=ORIENTED_EDGE('',*,*,#65,.T.) ;
#335=ORIENTED_EDGE('',*,*,#326,.F.) ;
#336=ORIENTED_EDGE('',*,*,#331,.T.) ;
#364=ORIENTED_EDGE('',*,*,#352,.F.) ;
#365=ORIENTED_EDGE('',*,*,#357,.F.) ;
#366=ORIENTED_EDGE('',*,*,#181,.F.) ;
#367=ORIENTED_EDGE('',*,*,#362,.T.) ;
#386=ORIENTED_EDGE('',*,*,#331,.F.) ;
#387=ORIENTED_EDGE('',*,*,#379,.F.) ;
#388=ORIENTED_EDGE('',*,*,#352,.T.) ;
#389=ORIENTED_EDGE('',*,*,#384,.F.) ;
#417=ORIENTED_EDGE('',*,*,#405,.T.) ;
#418=ORIENTED_EDGE('',*,*,#410,.T.) ;
#419=ORIENTED_EDGE('',*,*,#186,.T.) ;
#420=ORIENTED_EDGE('',*,*,#357,.T.) ;
#421=ORIENTED_EDGE('',*,*,#379,.T.) ;
#422=ORIENTED_EDGE('',*,*,#326,.T.) ;
#423=ORIENTED_EDGE('',*,*,#84,.T.) ;
#424=ORIENTED_EDGE('',*,*,#115,.T.) ;
#425=ORIENTED_EDGE('',*,*,#146,.T.) ;
#426=ORIENTED_EDGE('',*,*,#415,.T.) ;
#429=ORIENTED_EDGE('',*,*,#271,.F.) ;
#430=ORIENTED_EDGE('',*,*,#295,.F.) ;
#433=ORIENTED_EDGE('',*,*,#214,.F.) ;
#434=ORIENTED_EDGE('',*,*,#238,.F.) ;
#462=ORIENTED_EDGE('',*,*,#448,.F.) ;
#463=ORIENTED_EDGE('',*,*,#134,.F.) ;
#464=ORIENTED_EDGE('',*,*,#103,.F.) ;
#465=ORIENTED_EDGE('',*,*,#72,.F.) ;
#466=ORIENTED_EDGE('',*,*,#319,.F.) ;
#467=ORIENTED_EDGE('',*,*,#384,.T.) ;
#468=ORIENTED_EDGE('',*,*,#362,.F.) ;
#469=ORIENTED_EDGE('',*,*,#174,.F.) ;
#470=ORIENTED_EDGE('',*,*,#455,.F.) ;
#471=ORIENTED_EDGE('',*,*,#460,.T.) ;
#474=ORIENTED_EDGE('',*,*,#300,.T.) ;
#475=ORIENTED_EDGE('',*,*,#283,.T.) ;
#478=ORIENTED_EDGE('',*,*,#243,.T.) ;
#479=ORIENTED_EDGE('',*,*,#226,.T.) ;
#488=ORIENTED_EDGE('',*,*,#415,.F.) ;
#489=ORIENTED_EDGE('',*,*,#141,.F.) ;
#490=ORIENTED_EDGE('',*,*,#448,.T.) ;
#491=ORIENTED_EDGE('',*,*,#486,.F.) ;
#505=ORIENTED_EDGE('',*,*,#503,.T.) ;
#506=ORIENTED_EDGE('',*,*,#455,.T.) ;
#507=ORIENTED_EDGE('',*,*,#167,.T.) ;
#508=ORIENTED_EDGE('',*,*,#410,.F.) ;
#517=ORIENTED_EDGE('',*,*,#503,.F.) ;
#518=ORIENTED_EDGE('',*,*,#405,.F.) ;
#519=ORIENTED_EDGE('',*,*,#486,.T.) ;
#520=ORIENTED_EDGE('',*,*,#460,.F.) ;
#431=FACE_BOUND('',#428,.T.) ;
#435=FACE_BOUND('',#432,.T.) ;
#476=FACE_BOUND('',#473,.T.) ;
#480=FACE_BOUND('',#477,.T.) ;
#51=CLOSED_SHELL('Closed Shell',(#91,#122,#153,#193,#233,#250,#290,#307,#338,#369,#391,#436,#481,#493,#510,#522)) ;
#59=VECTOR('Line Direction',#58,1.) ;
#68=VECTOR('Line Direction',#67,1.) ;
#75=VECTOR('Line Direction',#74,1.) ;
#82=VECTOR('Line Direction',#81,1.) ;
#99=VECTOR('Line Direction',#98,1.) ;
#106=VECTOR('Line Direction',#105,1.) ;
#113=VECTOR('Line Direction',#112,1.) ;
#130=VECTOR('Line Direction',#129,1.) ;
#137=VECTOR('Line Direction',#136,1.) ;
#144=VECTOR('Line Direction',#143,1.) ;
#161=VECTOR('Line Direction',#160,1.) ;
#170=VECTOR('Line Direction',#169,1.) ;
#177=VECTOR('Line Direction',#176,1.) ;
#184=VECTOR('Line Direction',#183,1.) ;
#201=VECTOR('Line Direction',#200,1.) ;
#217=VECTOR('Line Direction',#216,1.) ;
#258=VECTOR('Line Direction',#257,1.) ;
#274=VECTOR('Line Direction',#273,1.) ;
#315=VECTOR('Line Direction',#314,1.) ;
#322=VECTOR('Line Direction',#321,1.) ;
#329=VECTOR('Line Direction',#328,1.) ;
#346=VECTOR('Line Direction',#345,1.) ;
#355=VECTOR('Line Direction',#354,1.) ;
#360=VECTOR('Line Direction',#359,1.) ;
#408=VECTOR('Line Direction',#407,1.) ;
#413=VECTOR('Line Direction',#412,1.) ;
#444=VECTOR('Line Direction',#443,1.) ;
#451=VECTOR('Line Direction',#450,1.) ;
#484=VECTOR('Line Direction',#483,1.) ;
#501=VECTOR('Line Direction',#500,1.) ;
#524=ADVANCED_BREP_SHAPE_REPRESENTATION('NONE',(#523),#46) ;
#49=SHAPE_REPRESENTATION(' ',(#48),#46) ;
#91=ADVANCED_FACE('Corps principal',(#90),#56,.T.) ;
#122=ADVANCED_FACE('Corps principal',(#121),#96,.T.) ;
#153=ADVANCED_FACE('Corps principal',(#152),#127,.T.) ;
#193=ADVANCED_FACE('Corps principal',(#192),#158,.F.) ;
#233=ADVANCED_FACE('Corps principal',(#232),#198,.F.) ;
#250=ADVANCED_FACE('Corps principal',(#249),#198,.F.) ;
#290=ADVANCED_FACE('Corps principal',(#289),#255,.F.) ;
#307=ADVANCED_FACE('Corps principal',(#306),#255,.F.) ;
#338=ADVANCED_FACE('Corps principal',(#337),#312,.T.) ;
#369=ADVANCED_FACE('Corps principal',(#368),#343,.F.) ;
#391=ADVANCED_FACE('Corps principal',(#390),#374,.F.) ;
#436=ADVANCED_FACE('Corps principal',(#427,#431,#435),#396,.T.) ;
#481=ADVANCED_FACE('Corps principal',(#472,#476,#480),#441,.F.) ;
#493=ADVANCED_FACE('Corps principal',(#492),#312,.T.) ;
#510=ADVANCED_FACE('Corps principal',(#509),#498,.F.) ;
#522=ADVANCED_FACE('Corps principal',(#521),#515,.F.) ;
#4=APPLICATION_PROTOCOL_DEFINITION('international standard','config_control_design',1994,#1) ;
#32=APPROVAL_DATE_TIME(#13,#21) ;
#523=MANIFOLD_SOLID_BREP('Corps principal',#51) ;
#11=CALENDAR_DATE(2020,4,2) ;
#30=CC_DESIGN_APPROVAL(#21,(#16,#6,#14)) ;
#18=CC_DESIGN_DATE_AND_TIME_ASSIGNMENT(#13,#17,(#16)) ;
#29=CC_DESIGN_DATE_AND_TIME_ASSIGNMENT(#13,#28,(#14)) ;
#17=DATE_TIME_ROLE('classification_date') ;
#28=DATE_TIME_ROLE('creation_date') ;
#27=CC_DESIGN_PERSON_AND_ORGANIZATION_ASSIGNMENT(#25,#26,(#16)) ;
#33=CC_DESIGN_PERSON_AND_ORGANIZATION_ASSIGNMENT(#25,#34,(#6)) ;
#35=CC_DESIGN_PERSON_AND_ORGANIZATION_ASSIGNMENT(#25,#36,(#6,#14)) ;
#37=CC_DESIGN_PERSON_AND_ORGANIZATION_ASSIGNMENT(#25,#38,(#5)) ;
#26=PERSON_AND_ORGANIZATION_ROLE('classification_officer') ;
#34=PERSON_AND_ORGANIZATION_ROLE('design_supplier') ;
#36=PERSON_AND_ORGANIZATION_ROLE('creator') ;
#38=PERSON_AND_ORGANIZATION_ROLE('design_owner') ;
#39=CC_DESIGN_SECURITY_CLASSIFICATION(#16,(#6)) ;
#211=CIRCLE('generated circle',#210,6.) ;
#225=CIRCLE('generated circle',#224,6.) ;
#237=CIRCLE('generated circle',#236,6.) ;
#242=CIRCLE('generated circle',#241,6.) ;
#268=CIRCLE('generated circle',#267,4.) ;
#282=CIRCLE('generated circle',#281,4.) ;
#294=CIRCLE('generated circle',#293,4.) ;
#299=CIRCLE('generated circle',#298,4.) ;
#378=CIRCLE('generated circle',#377,2.) ;
#383=CIRCLE('generated circle',#382,2.) ;
#400=CIRCLE('generated circle',#399,2.) ;
#459=CIRCLE('generated circle',#458,2.) ;
#525=SHAPE_REPRESENTATION_RELATIONSHIP(' ',' ',#49,#524) ;
#198=CYLINDRICAL_SURFACE('generated cylinder',#197,6.) ;
#255=CYLINDRICAL_SURFACE('generated cylinder',#254,4.) ;
#374=CYLINDRICAL_SURFACE('generated cylinder',#373,2.) ;
#515=CYLINDRICAL_SURFACE('generated cylinder',#514,2.) ;
#3=DESIGN_CONTEXT(' ',#1,'design') ;
#65=EDGE_CURVE('',#62,#64,#60,.T.) ;
#72=EDGE_CURVE('',#62,#71,#69,.T.) ;
#79=EDGE_CURVE('',#71,#78,#76,.T.) ;
#84=EDGE_CURVE('',#64,#78,#83,.T.) ;
#103=EDGE_CURVE('',#71,#102,#100,.T.) ;
#110=EDGE_CURVE('',#102,#109,#107,.T.) ;
#115=EDGE_CURVE('',#78,#109,#114,.T.) ;
#134=EDGE_CURVE('',#102,#133,#131,.T.) ;
#141=EDGE_CURVE('',#133,#140,#138,.T.) ;
#146=EDGE_CURVE('',#109,#140,#145,.T.) ;
#167=EDGE_CURVE('',#164,#166,#162,.T.) ;
#174=EDGE_CURVE('',#164,#173,#171,.F.) ;
#181=EDGE_CURVE('',#173,#180,#178,.T.) ;
#186=EDGE_CURVE('',#166,#180,#185,.F.) ;
#207=EDGE_CURVE('',#204,#206,#202,.F.) ;
#214=EDGE_CURVE('',#204,#213,#211,.T.) ;
#221=EDGE_CURVE('',#213,#220,#218,.F.) ;
#226=EDGE_CURVE('',#206,#220,#225,.T.) ;
#238=EDGE_CURVE('',#213,#204,#237,.T.) ;
#243=EDGE_CURVE('',#220,#206,#242,.T.) ;
#264=EDGE_CURVE('',#261,#263,#259,.F.) ;
#271=EDGE_CURVE('',#261,#270,#268,.T.) ;
#278=EDGE_CURVE('',#270,#277,#275,.F.) ;
#283=EDGE_CURVE('',#263,#277,#282,.T.) ;
#295=EDGE_CURVE('',#270,#261,#294,.T.) ;
#300=EDGE_CURVE('',#277,#263,#299,.T.) ;
#319=EDGE_CURVE('',#318,#62,#316,.T.) ;
#326=EDGE_CURVE('',#325,#64,#323,.T.) ;
#331=EDGE_CURVE('',#325,#318,#330,.F.) ;
#352=EDGE_CURVE('',#349,#351,#347,.F.) ;
#357=EDGE_CURVE('',#180,#349,#356,.F.) ;
#362=EDGE_CURVE('',#173,#351,#361,.F.) ;
#379=EDGE_CURVE('',#349,#325,#378,.F.) ;
#384=EDGE_CURVE('',#318,#351,#383,.T.) ;
#405=EDGE_CURVE('',#402,#404,#400,.F.) ;
#410=EDGE_CURVE('',#404,#166,#409,.F.) ;
#415=EDGE_CURVE('',#140,#402,#414,.T.) ;
#448=EDGE_CURVE('',#133,#447,#445,.T.) ;
#455=EDGE_CURVE('',#454,#164,#452,.F.) ;
#460=EDGE_CURVE('',#454,#447,#459,.T.) ;
#486=EDGE_CURVE('',#402,#447,#485,.F.) ;
#503=EDGE_CURVE('',#404,#454,#502,.F.) ;
#85=EDGE_LOOP('',(#86,#87,#88,#89)) ;
#116=EDGE_LOOP('',(#117,#118,#119,#120)) ;
#147=EDGE_LOOP('',(#148,#149,#150,#151)) ;
#187=EDGE_LOOP('',(#188,#189,#190,#191)) ;
#227=EDGE_LOOP('',(#228,#229,#230,#231)) ;
#244=EDGE_LOOP('',(#245,#246,#247,#248)) ;
#284=EDGE_LOOP('',(#285,#286,#287,#288)) ;
#301=EDGE_LOOP('',(#302,#303,#304,#305)) ;
#332=EDGE_LOOP('',(#333,#334,#335,#336)) ;
#363=EDGE_LOOP('',(#364,#365,#366,#367)) ;
#385=EDGE_LOOP('',(#386,#387,#388,#389)) ;
#416=EDGE_LOOP('',(#417,#418,#419,#420,#421,#422,#423,#424,#425,#426)) ;
#428=EDGE_LOOP('',(#429,#430)) ;
#432=EDGE_LOOP('',(#433,#434)) ;
#461=EDGE_LOOP('',(#462,#463,#464,#465,#466,#467,#468,#469,#470,#471)) ;
#473=EDGE_LOOP('',(#474,#475)) ;
#477=EDGE_LOOP('',(#478,#479)) ;
#487=EDGE_LOOP('',(#488,#489,#490,#491)) ;
#504=EDGE_LOOP('',(#505,#506,#507,#508)) ;
#516=EDGE_LOOP('',(#517,#518,#519,#520)) ;
#90=FACE_OUTER_BOUND('',#85,.T.) ;
#121=FACE_OUTER_BOUND('',#116,.T.) ;
#152=FACE_OUTER_BOUND('',#147,.T.) ;
#192=FACE_OUTER_BOUND('',#187,.T.) ;
#232=FACE_OUTER_BOUND('',#227,.T.) ;
#249=FACE_OUTER_BOUND('',#244,.T.) ;
#289=FACE_OUTER_BOUND('',#284,.T.) ;
#306=FACE_OUTER_BOUND('',#301,.T.) ;
#337=FACE_OUTER_BOUND('',#332,.T.) ;
#368=FACE_OUTER_BOUND('',#363,.T.) ;
#390=FACE_OUTER_BOUND('',#385,.T.) ;
#427=FACE_OUTER_BOUND('',#416,.T.) ;
#472=FACE_OUTER_BOUND('',#461,.T.) ;
#492=FACE_OUTER_BOUND('',#487,.T.) ;
#509=FACE_OUTER_BOUND('',#504,.T.) ;
#521=FACE_OUTER_BOUND('',#516,.T.) ;
#45=UNCERTAINTY_MEASURE_WITH_UNIT(LENGTH_MEASURE(0.005),#41,'distance_accuracy_value','CONFUSED CURVE UNCERTAINTY') ;
#60=LINE('Line',#57,#59) ;
#69=LINE('Line',#66,#68) ;
#76=LINE('Line',#73,#75) ;
#83=LINE('Line',#80,#82) ;
#100=LINE('Line',#97,#99) ;
#107=LINE('Line',#104,#106) ;
#114=LINE('Line',#111,#113) ;
#131=LINE('Line',#128,#130) ;
#138=LINE('Line',#135,#137) ;
#145=LINE('Line',#142,#144) ;
#162=LINE('Line',#159,#161) ;
#171=LINE('Line',#168,#170) ;
#178=LINE('Line',#175,#177) ;
#185=LINE('Line',#182,#184) ;
#202=LINE('Line',#199,#201) ;
#218=LINE('Line',#215,#217) ;
#259=LINE('Line',#256,#258) ;
#275=LINE('Line',#272,#274) ;
#316=LINE('Line',#313,#315) ;
#323=LINE('Line',#320,#322) ;
#330=LINE('Line',#327,#329) ;
#347=LINE('Line',#344,#346) ;
#356=LINE('Line',#353,#355) ;
#361=LINE('Line',#358,#360) ;
#409=LINE('Line',#406,#408) ;
#414=LINE('Line',#411,#413) ;
#445=LINE('Line',#442,#444) ;
#452=LINE('Line',#449,#451) ;
#485=LINE('Line',#482,#484) ;
#502=LINE('Line',#499,#501) ;
#2=MECHANICAL_CONTEXT(' ',#1,'mechanical') ;
#24=PERSONAL_ADDRESS(' ',' ',' ',' ',' ',' ',' ',' ',' ',' ',' ',' ',(#22),' ') ;
#56=PLANE('Plane',#55) ;
#96=PLANE('Plane',#95) ;
#127=PLANE('Plane',#126) ;
#158=PLANE('Plane',#157) ;
#312=PLANE('Plane',#311) ;
#343=PLANE('Plane',#342) ;
#396=PLANE('Plane',#395) ;
#441=PLANE('Plane',#440) ;
#498=PLANE('Plane',#497) ;
#43=PLANE_ANGLE_MEASURE_WITH_UNIT(PLANE_ANGLE_MEASURE(0.0174532925199),#42) ;
#7=PRODUCT_CATEGORY('part',$) ;
#9=PRODUCT_CATEGORY_RELATIONSHIP(' ',' ',#7,#8) ;
#6=PRODUCT_DEFINITION_FORMATION_WITH_SPECIFIED_SOURCE('',' ',#5,.NOT_KNOWN.) ;
#8=PRODUCT_RELATED_PRODUCT_CATEGORY('detail',$,(#5)) ;
#50=SHAPE_DEFINITION_REPRESENTATION(#40,#49) ;
#62=VERTEX_POINT('',#61) ;
#64=VERTEX_POINT('',#63) ;
#71=VERTEX_POINT('',#70) ;
#78=VERTEX_POINT('',#77) ;
#102=VERTEX_POINT('',#101) ;
#109=VERTEX_POINT('',#108) ;
#133=VERTEX_POINT('',#132) ;
#140=VERTEX_POINT('',#139) ;
#164=VERTEX_POINT('',#163) ;
#166=VERTEX_POINT('',#165) ;
#173=VERTEX_POINT('',#172) ;
#180=VERTEX_POINT('',#179) ;
#204=VERTEX_POINT('',#203) ;
#206=VERTEX_POINT('',#205) ;
#213=VERTEX_POINT('',#212) ;
#220=VERTEX_POINT('',#219) ;
#261=VERTEX_POINT('',#260) ;
#263=VERTEX_POINT('',#262) ;
#270=VERTEX_POINT('',#269) ;
#277=VERTEX_POINT('',#276) ;
#318=VERTEX_POINT('',#317) ;
#325=VERTEX_POINT('',#324) ;
#349=VERTEX_POINT('',#348) ;
#351=VERTEX_POINT('',#350) ;
#402=VERTEX_POINT('',#401) ;
#404=VERTEX_POINT('',#403) ;
#447=VERTEX_POINT('',#446) ;
#454=VERTEX_POINT('',#453) ;
#41=(LENGTH_UNIT()NAMED_UNIT(*)SI_UNIT(.MILLI.,.METRE.)) ;
#42=(NAMED_UNIT(*)PLANE_ANGLE_UNIT()SI_UNIT($,.RADIAN.)) ;
#44=(NAMED_UNIT(*)SI_UNIT($,.STERADIAN.)SOLID_ANGLE_UNIT()) ;
#46=(GEOMETRIC_REPRESENTATION_CONTEXT(3)GLOBAL_UNCERTAINTY_ASSIGNED_CONTEXT((#45))GLOBAL_UNIT_ASSIGNED_CONTEXT((#41,#42,#44))REPRESENTATION_CONTEXT(' ',' ')) ;
ENDSEC;
END-ISO-10303-21;
