ISO-10303-21;
HEADER;
FILE_DESCRIPTION (( 'STEP AP214' ),
    '1' );
FILE_NAME ('Traverse.STEP',
    '2020-02-05T06:58:50',
    ( 'Victor_Hivert' ),
    ( '' ),
    'SwSTEP 2.0',
    'SolidWorks 2019',
    '' );
FILE_SCHEMA (( 'AUTOMOTIVE_DESIGN' ));
ENDSEC;

DATA;
#1 = DIRECTION ( 'NONE',  ( 1.000000000000000000, 0.0000000000000000000, 1.161645184805897749E-16 ) ) ;
#2 = CARTESIAN_POINT ( 'NONE',  ( -5.599999999999999645, 175.0000000000000000, -2.199999999999998845 ) ) ;
#3 = APPLICATION_CONTEXT ( 'automotive_design' ) ;
#4 = DIRECTION ( 'NONE',  ( 0.0000000000000000000, 0.0000000000000000000, -1.000000000000000000 ) ) ;
#5 = DIRECTION ( 'NONE',  ( 1.000000000000000000, 0.0000000000000000000, 1.992073049321003298E-16 ) ) ;
#6 = LINE ( 'NONE', #161, #25 ) ;
#7 = APPLICATION_CONTEXT ( 'automotive_design' ) ;
#8 = SURFACE_SIDE_STYLE ('',( #44 ) ) ;
#9 = UNCERTAINTY_MEASURE_WITH_UNIT (LENGTH_MEASURE( 1.000000000000000082E-05 ), #177, 'distance_accuracy_value', 'NONE');
#10 = PRESENTATION_LAYER_ASSIGNMENT (  '', '', ( #165 ) ) ;
#11 = PRODUCT_DEFINITION ( 'UNKNOWN', '', #126, #104 ) ;
#12 = DIRECTION ( 'NONE',  ( -0.0000000000000000000, 1.000000000000000000, -0.0000000000000000000 ) ) ;
#13 = FILL_AREA_STYLE_COLOUR ( '', #56 ) ;
#14 = CARTESIAN_POINT ( 'NONE',  ( -5.600000000000000533, 175.0000000000000000, 2.154065922853799719 ) ) ;
#15 = APPLICATION_PROTOCOL_DEFINITION ( 'draft international standard', 'automotive_design', 1998, #7 ) ;
#16 = CARTESIAN_POINT ( 'NONE',  ( -5.599999999999999645, -175.0000000000000000, -2.199999999999998845 ) ) ;
#17 = COLOUR_RGB ( '',0.6470588235294117974, 0.5176470588235293491, 0.0000000000000000000 ) ;
#18 = CARTESIAN_POINT ( 'NONE',  ( 0.0000000000000000000, 175.0000000000000000, 0.0000000000000000000 ) ) ;
#19 = CARTESIAN_POINT ( 'NONE',  ( -5.600000000000000533, -175.0000000000000000, 2.154065922853799719 ) ) ;
#20 = VECTOR ( 'NONE', #31, 1000.000000000000000 ) ;
#21 =( NAMED_UNIT ( * ) PLANE_ANGLE_UNIT ( ) SI_UNIT ( $, .RADIAN. ) );
#22 = ADVANCED_FACE ( 'NONE', ( #185 ), #131, .T. ) ;
#23 = FACE_OUTER_BOUND ( 'NONE', #91, .T. ) ;
#24 = DIRECTION ( 'NONE',  ( -0.0000000000000000000, 1.000000000000000000, -0.0000000000000000000 ) ) ;
#25 = VECTOR ( 'NONE', #57, 1000.000000000000000 ) ;
#26 = ORIENTED_EDGE ( 'NONE', *, *, #190, .T. ) ;
#27 = FILL_AREA_STYLE ('',( #152 ) ) ;
#28 = ORIENTED_EDGE ( 'NONE', *, *, #163, .F. ) ;
#29 = CARTESIAN_POINT ( 'NONE',  ( 5.600000000000000533, -175.0000000000000000, 2.154065922853801052 ) ) ;
#30 = VECTOR ( 'NONE', #35, 1000.000000000000000 ) ;
#31 = DIRECTION ( 'NONE',  ( 1.992073049321003544E-16, 0.0000000000000000000, -1.000000000000000000 ) ) ;
#32 = EDGE_CURVE ( 'NONE', #171, #110, #42, .T. ) ;
#33 = EDGE_CURVE ( 'NONE', #110, #182, #99, .T. ) ;
#34 = VECTOR ( 'NONE', #24, 1000.000000000000000 ) ;
#35 = DIRECTION ( 'NONE',  ( -0.0000000000000000000, 1.000000000000000000, -0.0000000000000000000 ) ) ;
#36 = CARTESIAN_POINT ( 'NONE',  ( 5.600000000000000533, 175.0000000000000000, 2.154065922853801052 ) ) ;
#37 = CARTESIAN_POINT ( 'NONE',  ( -5.599999999999999645, -175.0000000000000000, -2.199999999999998845 ) ) ;
#38 = SHAPE_DEFINITION_REPRESENTATION ( #184, #125 ) ;
#39 = MANIFOLD_SOLID_BREP ( 'Boss.-Extru.1', #135 ) ;
#40 = ADVANCED_FACE ( 'NONE', ( #81 ), #158, .T. ) ;
#41 = VECTOR ( 'NONE', #130, 1000.000000000000000 ) ;
#42 = LINE ( 'NONE', #29, #189 ) ;
#43 = VERTEX_POINT ( 'NONE', #19 ) ;
#44 = SURFACE_STYLE_FILL_AREA ( #27 ) ;
#45 = ORIENTED_EDGE ( 'NONE', *, *, #102, .F. ) ;
#46 = AXIS2_PLACEMENT_3D ( 'NONE', #78, #153, #188 ) ;
#47 = CIRCLE ( 'NONE', #82, 6.000000000000000000 ) ;
#48 = ORIENTED_EDGE ( 'NONE', *, *, #203, .T. ) ;
#49 = AXIS2_PLACEMENT_3D ( 'NONE', #191, #136, #173 ) ;
#50 = LINE ( 'NONE', #16, #111 ) ;
#51 = CARTESIAN_POINT ( 'NONE',  ( 5.600000000000000533, -175.0000000000000000, 2.154065922853801052 ) ) ;
#52 = AXIS2_PLACEMENT_3D ( 'NONE', #195, #196, #160 ) ;
#53 = EDGE_CURVE ( 'NONE', #182, #90, #124, .T. ) ;
#54 = DIRECTION ( 'NONE',  ( 1.992073049321003544E-16, 0.0000000000000000000, -1.000000000000000000 ) ) ;
#55 = FACE_OUTER_BOUND ( 'NONE', #108, .T. ) ;
#56 = COLOUR_RGB ( '',0.6470588235294117974, 0.5176470588235293491, 0.0000000000000000000 ) ;
#57 = DIRECTION ( 'NONE',  ( 1.992073049321003544E-16, 0.0000000000000000000, 1.000000000000000000 ) ) ;
#58 = PRODUCT ( 'Traverse', 'Traverse', '', ( #122 ) ) ;
#59 = VERTEX_POINT ( 'NONE', #114 ) ;
#60 = VECTOR ( 'NONE', #68, 1000.000000000000000 ) ;
#61 = UNCERTAINTY_MEASURE_WITH_UNIT (LENGTH_MEASURE( 1.000000000000000082E-05 ), #127, 'distance_accuracy_value', 'NONE');
#62 = ORIENTED_EDGE ( 'NONE', *, *, #190, .F. ) ;
#63 = EDGE_LOOP ( 'NONE', ( #137, #172, #120, #202 ) ) ;
#64 = DIRECTION ( 'NONE',  ( -0.0000000000000000000, 1.000000000000000000, -0.0000000000000000000 ) ) ;
#65 = PRESENTATION_STYLE_ASSIGNMENT (( #204 ) ) ;
#66 = DIRECTION ( 'NONE',  ( 0.0000000000000000000, -0.0000000000000000000, -1.000000000000000000 ) ) ;
#67 = MECHANICAL_DESIGN_GEOMETRIC_PRESENTATION_REPRESENTATION (  '', ( #165 ), #107 ) ;
#68 = DIRECTION ( 'NONE',  ( 1.000000000000000000, 0.0000000000000000000, 1.161645184805897749E-16 ) ) ;
#69 = ORIENTED_EDGE ( 'NONE', *, *, #33, .T. ) ;
#70 = DIRECTION ( 'NONE',  ( 0.0000000000000000000, -0.0000000000000000000, -1.000000000000000000 ) ) ;
#71 = DIRECTION ( 'NONE',  ( 1.992073049321003298E-16, 0.0000000000000000000, -1.000000000000000000 ) ) ;
#72 = CARTESIAN_POINT ( 'NONE',  ( -5.599999999999999645, 175.0000000000000000, -2.199999999999998845 ) ) ;
#73 = SURFACE_STYLE_USAGE ( .BOTH. , #8 ) ;
#74 = VECTOR ( 'NONE', #54, 1000.000000000000000 ) ;
#75 = VERTEX_POINT ( 'NONE', #179 ) ;
#76 =( NAMED_UNIT ( * ) PLANE_ANGLE_UNIT ( ) SI_UNIT ( $, .RADIAN. ) );
#77 = FILL_AREA_STYLE ('',( #13 ) ) ;
#78 = CARTESIAN_POINT ( 'NONE',  ( 0.0000000000000000000, 0.0000000000000000000, 0.0000000000000000000 ) ) ;
#79 = LINE ( 'NONE', #2, #60 ) ;
#80 = AXIS2_PLACEMENT_3D ( 'NONE', #166, #146, #92 ) ;
#81 = FACE_OUTER_BOUND ( 'NONE', #109, .T. ) ;
#82 = AXIS2_PLACEMENT_3D ( 'NONE', #143, #194, #4 ) ;
#83 = STYLED_ITEM ( 'NONE', ( #65 ), #125 ) ;
#84 = ORIENTED_EDGE ( 'NONE', *, *, #187, .F. ) ;
#85 = CARTESIAN_POINT ( 'NONE',  ( -5.600000000000000533, 175.0000000000000000, 2.154065922853799719 ) ) ;
#86 = PLANE ( 'NONE',  #147 ) ;
#87 = EDGE_CURVE ( 'NONE', #142, #90, #116, .T. ) ;
#88 = ORIENTED_EDGE ( 'NONE', *, *, #53, .T. ) ;
#89 = AXIS2_PLACEMENT_3D ( 'NONE', #168, #64, #118 ) ;
#90 = VERTEX_POINT ( 'NONE', #72 ) ;
#91 = EDGE_LOOP ( 'NONE', ( #88, #132, #28, #26 ) ) ;
#92 = DIRECTION ( 'NONE',  ( 0.0000000000000000000, 0.0000000000000000000, -1.000000000000000000 ) ) ;
#93 = ORIENTED_EDGE ( 'NONE', *, *, #117, .T. ) ;
#94 = MECHANICAL_DESIGN_GEOMETRIC_PRESENTATION_REPRESENTATION (  '', ( #83 ), #112 ) ;
#95 = PLANE ( 'NONE',  #159 ) ;
#96 = ORIENTED_EDGE ( 'NONE', *, *, #151, .T. ) ;
#97 =( NAMED_UNIT ( * ) SI_UNIT ( $, .STERADIAN. ) SOLID_ANGLE_UNIT ( ) );
#98 = CARTESIAN_POINT ( 'NONE',  ( -5.600000000000000533, -175.0000000000000000, 2.154065922853799719 ) ) ;
#99 = CIRCLE ( 'NONE', #80, 6.000000000000000000 ) ;
#100 = PLANE ( 'NONE',  #52 ) ;
#101 = LINE ( 'NONE', #162, #34 ) ;
#102 = EDGE_CURVE ( 'NONE', #59, #110, #103, .T. ) ;
#103 = LINE ( 'NONE', #178, #41 ) ;
#104 = PRODUCT_DEFINITION_CONTEXT ( 'detailed design', #3, 'design' ) ;
#105 = ORIENTED_EDGE ( 'NONE', *, *, #203, .F. ) ;
#106 =( LENGTH_UNIT ( ) NAMED_UNIT ( * ) SI_UNIT ( .MILLI., .METRE. ) );
#107 =( GEOMETRIC_REPRESENTATION_CONTEXT ( 3 ) GLOBAL_UNCERTAINTY_ASSIGNED_CONTEXT ( ( #61 ) ) GLOBAL_UNIT_ASSIGNED_CONTEXT ( ( #127, #193, #97 ) ) REPRESENTATION_CONTEXT ( 'NONE', 'WORKASPACE' ) );
#108 = EDGE_LOOP ( 'NONE', ( #167, #181, #169, #200 ) ) ;
#109 = EDGE_LOOP ( 'NONE', ( #48, #133, #96, #93 ) ) ;
#110 = VERTEX_POINT ( 'NONE', #36 ) ;
#111 = VECTOR ( 'NONE', #1, 1000.000000000000000 ) ;
#112 =( GEOMETRIC_REPRESENTATION_CONTEXT ( 3 ) GLOBAL_UNCERTAINTY_ASSIGNED_CONTEXT ( ( #183 ) ) GLOBAL_UNIT_ASSIGNED_CONTEXT ( ( #106, #76, #170 ) ) REPRESENTATION_CONTEXT ( 'NONE', 'WORKASPACE' ) );
#113 = FACE_OUTER_BOUND ( 'NONE', #155, .T. ) ;
#114 = CARTESIAN_POINT ( 'NONE',  ( 5.599999999999999645, 175.0000000000000000, -2.199999999999997513 ) ) ;
#115 = EDGE_CURVE ( 'NONE', #75, #59, #101, .T. ) ;
#116 = LINE ( 'NONE', #37, #197 ) ;
#117 = EDGE_CURVE ( 'NONE', #75, #171, #6, .T. ) ;
#118 = DIRECTION ( 'NONE',  ( 0.0000000000000000000, 0.0000000000000000000, 1.000000000000000000 ) ) ;
#119 = ADVANCED_FACE ( 'NONE', ( #23 ), #86, .F. ) ;
#120 = ORIENTED_EDGE ( 'NONE', *, *, #151, .F. ) ;
#121 = PRODUCT_RELATED_PRODUCT_CATEGORY ( 'part', '', ( #58 ) ) ;
#122 = PRODUCT_CONTEXT ( 'NONE', #7, 'mechanical' ) ;
#123 = LINE ( 'NONE', #98, #30 ) ;
#124 = LINE ( 'NONE', #85, #74 ) ;
#125 = ADVANCED_BREP_SHAPE_REPRESENTATION ( 'Traverse', ( #39, #46 ), #149 ) ;
#126 = PRODUCT_DEFINITION_FORMATION_WITH_SPECIFIED_SOURCE ( 'ANY', '', #58, .NOT_KNOWN. ) ;
#127 =( LENGTH_UNIT ( ) NAMED_UNIT ( * ) SI_UNIT ( .MILLI., .METRE. ) );
#128 = AXIS2_PLACEMENT_3D ( 'NONE', #140, #176, #70 ) ;
#129 = CARTESIAN_POINT ( 'NONE',  ( -5.599999999999999645, -175.0000000000000000, -2.199999999999998845 ) ) ;
#130 = DIRECTION ( 'NONE',  ( 1.992073049321003544E-16, 0.0000000000000000000, 1.000000000000000000 ) ) ;
#131 = CYLINDRICAL_SURFACE ( 'NONE', #89, 6.000000000000000000 ) ;
#132 = ORIENTED_EDGE ( 'NONE', *, *, #87, .F. ) ;
#133 = ORIENTED_EDGE ( 'NONE', *, *, #163, .T. ) ;
#134 = SURFACE_STYLE_FILL_AREA ( #77 ) ;
#135 = CLOSED_SHELL ( 'NONE', ( #22, #119, #148, #192, #40, #180 ) ) ;
#136 = DIRECTION ( 'NONE',  ( -1.161645184805897749E-16, 0.0000000000000000000, 1.000000000000000000 ) ) ;
#137 = ORIENTED_EDGE ( 'NONE', *, *, #187, .T. ) ;
#138 = CARTESIAN_POINT ( 'NONE',  ( -5.600000000000000533, -175.0000000000000000, 2.154065922853799719 ) ) ;
#139 = EDGE_LOOP ( 'NONE', ( #69, #62, #105, #154 ) ) ;
#140 = CARTESIAN_POINT ( 'NONE',  ( 0.0000000000000000000, -175.0000000000000000, 0.0000000000000000000 ) ) ;
#141 =( NAMED_UNIT ( * ) SI_UNIT ( $, .STERADIAN. ) SOLID_ANGLE_UNIT ( ) );
#142 = VERTEX_POINT ( 'NONE', #129 ) ;
#143 = CARTESIAN_POINT ( 'NONE',  ( 0.0000000000000000000, -175.0000000000000000, 0.0000000000000000000 ) ) ;
#144 = CARTESIAN_POINT ( 'NONE',  ( -5.600000000000000533, -175.0000000000000000, 2.154065922853799719 ) ) ;
#145 = DIRECTION ( 'NONE',  ( -0.0000000000000000000, 1.000000000000000000, -0.0000000000000000000 ) ) ;
#146 = DIRECTION ( 'NONE',  ( 0.0000000000000000000, -1.000000000000000000, 0.0000000000000000000 ) ) ;
#147 = AXIS2_PLACEMENT_3D ( 'NONE', #144, #5, #71 ) ;
#148 = ADVANCED_FACE ( 'NONE', ( #198 ), #175, .F. ) ;
#149 =( GEOMETRIC_REPRESENTATION_CONTEXT ( 3 ) GLOBAL_UNCERTAINTY_ASSIGNED_CONTEXT ( ( #9 ) ) GLOBAL_UNIT_ASSIGNED_CONTEXT ( ( #177, #21, #141 ) ) REPRESENTATION_CONTEXT ( 'NONE', 'WORKASPACE' ) );
#150 = PRESENTATION_STYLE_ASSIGNMENT (( #73 ) ) ;
#151 = EDGE_CURVE ( 'NONE', #142, #75, #50, .T. ) ;
#152 = FILL_AREA_STYLE_COLOUR ( '', #17 ) ;
#153 = DIRECTION ( 'NONE',  ( 0.0000000000000000000, 0.0000000000000000000, 1.000000000000000000 ) ) ;
#154 = ORIENTED_EDGE ( 'NONE', *, *, #32, .T. ) ;
#155 = EDGE_LOOP ( 'NONE', ( #164, #45, #84, #199 ) ) ;
#156 = DIRECTION ( 'NONE',  ( 0.0000000000000000000, -1.000000000000000000, 0.0000000000000000000 ) ) ;
#157 = LINE ( 'NONE', #138, #20 ) ;
#158 = PLANE ( 'NONE',  #128 ) ;
#159 = AXIS2_PLACEMENT_3D ( 'NONE', #18, #156, #66 ) ;
#160 = DIRECTION ( 'NONE',  ( 1.992073049321003298E-16, 0.0000000000000000000, 1.000000000000000000 ) ) ;
#161 = CARTESIAN_POINT ( 'NONE',  ( 5.599999999999999645, -175.0000000000000000, -2.199999999999997513 ) ) ;
#162 = CARTESIAN_POINT ( 'NONE',  ( 5.599999999999999645, -175.0000000000000000, -2.199999999999997513 ) ) ;
#163 = EDGE_CURVE ( 'NONE', #43, #142, #157, .T. ) ;
#164 = ORIENTED_EDGE ( 'NONE', *, *, #33, .F. ) ;
#165 = STYLED_ITEM ( 'NONE', ( #150 ), #39 ) ;
#166 = CARTESIAN_POINT ( 'NONE',  ( 0.0000000000000000000, 175.0000000000000000, 0.0000000000000000000 ) ) ;
#167 = ORIENTED_EDGE ( 'NONE', *, *, #102, .T. ) ;
#168 = CARTESIAN_POINT ( 'NONE',  ( 0.0000000000000000000, -175.0000000000000000, 0.0000000000000000000 ) ) ;
#169 = ORIENTED_EDGE ( 'NONE', *, *, #117, .F. ) ;
#170 =( NAMED_UNIT ( * ) SI_UNIT ( $, .STERADIAN. ) SOLID_ANGLE_UNIT ( ) );
#171 = VERTEX_POINT ( 'NONE', #51 ) ;
#172 = ORIENTED_EDGE ( 'NONE', *, *, #115, .F. ) ;
#173 = DIRECTION ( 'NONE',  ( 1.000000000000000000, 0.0000000000000000000, 1.161645184805897749E-16 ) ) ;
#174 = APPLICATION_PROTOCOL_DEFINITION ( 'draft international standard', 'automotive_design', 1998, #3 ) ;
#175 = PLANE ( 'NONE',  #49 ) ;
#176 = DIRECTION ( 'NONE',  ( 0.0000000000000000000, -1.000000000000000000, 0.0000000000000000000 ) ) ;
#177 =( LENGTH_UNIT ( ) NAMED_UNIT ( * ) SI_UNIT ( .MILLI., .METRE. ) );
#178 = CARTESIAN_POINT ( 'NONE',  ( 5.599999999999999645, 175.0000000000000000, -2.199999999999997513 ) ) ;
#179 = CARTESIAN_POINT ( 'NONE',  ( 5.599999999999999645, -175.0000000000000000, -2.199999999999997513 ) ) ;
#180 = ADVANCED_FACE ( 'NONE', ( #113 ), #95, .F. ) ;
#181 = ORIENTED_EDGE ( 'NONE', *, *, #32, .F. ) ;
#182 = VERTEX_POINT ( 'NONE', #14 ) ;
#183 = UNCERTAINTY_MEASURE_WITH_UNIT (LENGTH_MEASURE( 1.000000000000000082E-05 ), #106, 'distance_accuracy_value', 'NONE');
#184 = PRODUCT_DEFINITION_SHAPE ( 'NONE', 'NONE',  #11 ) ;
#185 = FACE_OUTER_BOUND ( 'NONE', #139, .T. ) ;
#186 = SURFACE_SIDE_STYLE ('',( #134 ) ) ;
#187 = EDGE_CURVE ( 'NONE', #90, #59, #79, .T. ) ;
#188 = DIRECTION ( 'NONE',  ( 1.000000000000000000, 0.0000000000000000000, 0.0000000000000000000 ) ) ;
#189 = VECTOR ( 'NONE', #12, 1000.000000000000000 ) ;
#190 = EDGE_CURVE ( 'NONE', #43, #182, #123, .T. ) ;
#191 = CARTESIAN_POINT ( 'NONE',  ( -5.599999999999999645, -175.0000000000000000, -2.199999999999998845 ) ) ;
#192 = ADVANCED_FACE ( 'NONE', ( #55 ), #100, .F. ) ;
#193 =( NAMED_UNIT ( * ) PLANE_ANGLE_UNIT ( ) SI_UNIT ( $, .RADIAN. ) );
#194 = DIRECTION ( 'NONE',  ( 0.0000000000000000000, -1.000000000000000000, 0.0000000000000000000 ) ) ;
#195 = CARTESIAN_POINT ( 'NONE',  ( 5.599999999999999645, -175.0000000000000000, -2.199999999999997513 ) ) ;
#196 = DIRECTION ( 'NONE',  ( -1.000000000000000000, 0.0000000000000000000, 1.992073049321003298E-16 ) ) ;
#197 = VECTOR ( 'NONE', #145, 1000.000000000000000 ) ;
#198 = FACE_OUTER_BOUND ( 'NONE', #63, .T. ) ;
#199 = ORIENTED_EDGE ( 'NONE', *, *, #53, .F. ) ;
#200 = ORIENTED_EDGE ( 'NONE', *, *, #115, .T. ) ;
#201 = PRESENTATION_LAYER_ASSIGNMENT (  '', '', ( #83 ) ) ;
#202 = ORIENTED_EDGE ( 'NONE', *, *, #87, .T. ) ;
#203 = EDGE_CURVE ( 'NONE', #171, #43, #47, .T. ) ;
#204 = SURFACE_STYLE_USAGE ( .BOTH. , #186 ) ;
ENDSEC;
END-ISO-10303-21;
