ISO-10303-21;
HEADER;
/****************************************************************
 * Generated by software with PDElib inside                     *
 * PDElib Version v7.7, created Tue 11/13/2018  9:33:03.96      *
 * International Technegroup Inc. (www.iti-global.com)          *
 ****************************************************************/
FILE_DESCRIPTION((''),'2;1');
FILE_NAME('E:\\IFR0309.stp','2020-02-25T17:38:37',(''),(''),'STEP Write','Mastercam 2020 ... CNC Software, Inc.','');
FILE_SCHEMA(('AUTOMOTIVE_DESIGN'));
ENDSEC;
DATA;
#10=(NAMED_UNIT(*)PLANE_ANGLE_UNIT()SI_UNIT($,.RADIAN.));
#11=DIMENSIONAL_EXPONENTS(0.0,0.0,0.0,0.0,0.0,0.0,0.0);
#12=PLANE_ANGLE_MEASURE_WITH_UNIT(PLANE_ANGLE_MEASURE(0.017453292500000),#10);
#16=(CONVERSION_BASED_UNIT('DEGREE',#12)NAMED_UNIT(#11)PLANE_ANGLE_UNIT());
#20=(NAMED_UNIT(*)SI_UNIT($,.STERADIAN.)SOLID_ANGLE_UNIT());
#24=(LENGTH_UNIT()NAMED_UNIT(*)SI_UNIT(.MILLI.,.METRE.));
#26=UNCERTAINTY_MEASURE_WITH_UNIT(LENGTH_MEASURE(0.000050000000000),#24,'DISTANCE_ACCURACY_VALUE','');
#28=(GEOMETRIC_REPRESENTATION_CONTEXT(3)GLOBAL_UNCERTAINTY_ASSIGNED_CONTEXT((#26))GLOBAL_UNIT_ASSIGNED_CONTEXT((#16,#20,#24))REPRESENTATION_CONTEXT('','3D'));
#29=APPLICATION_CONTEXT('automotive design');
#30=APPLICATION_PROTOCOL_DEFINITION('Draft International Standard','automotive_design',1998,#29);
#31=PRODUCT_CONTEXT('None',#29,'mechanical');
#32=PRODUCT('None','None','None',(#31));
#33=PRODUCT_RELATED_PRODUCT_CATEGORY('part','description',(#32));
#34=PRODUCT_DEFINITION_FORMATION('None','None',#32);
#35=PRODUCT_DEFINITION_CONTEXT('part definition',#29,'design');
#36=PRODUCT_DEFINITION('None','None',#34,#35);
#37=PRODUCT_DEFINITION_SHAPE('None','None',#36);
#38=ADVANCED_BREP_SHAPE_REPRESENTATION('',(#201),#28);
#39=SHAPE_DEFINITION_REPRESENTATION(#37,#38);
#40=CARTESIAN_POINT('',(5.050000000000001,7.500000000000000,-4.996004E-16));
#41=DIRECTION('',(-1.0,0.0,0.0));
#42=DIRECTION('',(0.0,0.0,1.0));
#43=AXIS2_PLACEMENT_3D('',#40,#41,#42);
#44=CYLINDRICAL_SURFACE('',#43,1.0);
#45=CARTESIAN_POINT('',(1.900000000000000,7.500000000000000,-1.0));
#46=VERTEX_POINT('',#45);
#47=CARTESIAN_POINT('',(1.899999999999998,7.500000000000003,-1.320496E-14));
#48=DIRECTION('',(1.0,2.751560E-16,2.168404E-16));
#49=DIRECTION('',(2.168404E-16,-1.734723E-15,-1.0));
#50=AXIS2_PLACEMENT_3D('',#47,#48,#49);
#51=CIRCLE('',#50,1.000000000000000);
#52=EDGE_CURVE('',#46,#46,#51,.T.);
#53=ORIENTED_EDGE('',*,*,#52,.F.);
#54=EDGE_LOOP('',(#53));
#55=FACE_BOUND('',#54,.T.);
#56=CARTESIAN_POINT('',(4.900000000000000,7.500000000000000,-1.0));
#57=VERTEX_POINT('',#56);
#58=CARTESIAN_POINT('',(4.900000000000001,7.500000000000003,-2.397334E-14));
#59=DIRECTION('',(-1.0,3.315846E-16,-8.673617E-16));
#60=DIRECTION('',(8.673617E-16,-3.469447E-15,-1.0));
#61=AXIS2_PLACEMENT_3D('',#58,#59,#60);
#62=CIRCLE('',#61,1.000000000000001);
#63=EDGE_CURVE('',#57,#57,#62,.T.);
#64=ORIENTED_EDGE('',*,*,#63,.F.);
#65=EDGE_LOOP('',(#64));
#66=FACE_BOUND('',#65,.T.);
#67=ADVANCED_FACE('',(#55,#66),#44,.F.);
#68=CARTESIAN_POINT('',(4.925000000000001,0.0,-4.579670E-16));
#69=DIRECTION('',(-1.0,0.0,0.0));
#70=DIRECTION('',(0.0,0.0,-1.0));
#71=AXIS2_PLACEMENT_3D('',#68,#69,#70);
#72=CONICAL_SURFACE('',#71,8.975000000000000,45.000000000000050);
#73=CARTESIAN_POINT('',(4.400000000000000,0.0,9.500000000000000));
#74=VERTEX_POINT('',#73);
#75=CARTESIAN_POINT('',(4.399999999999999,1.689568E-15,-4.517752E-16));
#76=DIRECTION('',(1.0,-3.490364E-17,-9.130124E-17));
#77=DIRECTION('',(9.130124E-17,-1.940151E-16,1.0));
#78=AXIS2_PLACEMENT_3D('',#75,#76,#77);
#79=CIRCLE('',#78,9.500000000000000);
#80=EDGE_CURVE('',#74,#74,#79,.T.);
#81=ORIENTED_EDGE('',*,*,#80,.T.);
#82=EDGE_LOOP('',(#81));
#83=FACE_OUTER_BOUND('',#82,.T.);
#84=CARTESIAN_POINT('',(4.900000000000000,0.0,9.000000000000002));
#85=VERTEX_POINT('',#84);
#86=CARTESIAN_POINT('',(4.899999999999999,-5.784121E-16,-1.079805E-15));
#87=DIRECTION('',(-1.0,-3.684273E-17,9.637353E-17));
#88=DIRECTION('',(9.637353E-17,8.432684E-17,1.0));
#89=AXIS2_PLACEMENT_3D('',#86,#87,#88);
#90=CIRCLE('',#89,9.000000000000002);
#91=EDGE_CURVE('',#85,#85,#90,.T.);
#92=ORIENTED_EDGE('',*,*,#91,.T.);
#93=EDGE_LOOP('',(#92));
#94=FACE_BOUND('',#93,.T.);
#95=ADVANCED_FACE('',(#83,#94),#72,.T.);
#96=CARTESIAN_POINT('',(2.300000000000000,0.0,-2.498002E-16));
#97=DIRECTION('',(1.0,0.0,0.0));
#98=DIRECTION('',(0.0,0.0,1.0));
#99=AXIS2_PLACEMENT_3D('',#96,#97,#98);
#100=CYLINDRICAL_SURFACE('',#99,9.500000000000000);
#101=CARTESIAN_POINT('',(2.400000000000000,0.0,9.500000000000000));
#102=VERTEX_POINT('',#101);
#103=CARTESIAN_POINT('',(2.400000000000000,-1.432020E-15,-2.155601E-17));
#104=DIRECTION('',(-1.0,-8.095153E-17,1.385808E-32));
#105=DIRECTION('',(0.0,1.711898E-16,1.0));
#106=AXIS2_PLACEMENT_3D('',#103,#104,#105);
#107=CIRCLE('',#106,9.500000000000000);
#108=EDGE_CURVE('',#102,#102,#107,.T.);
#109=ORIENTED_EDGE('',*,*,#108,.F.);
#110=EDGE_LOOP('',(#109));
#111=FACE_BOUND('',#110,.T.);
#112=ORIENTED_EDGE('',*,*,#80,.F.);
#113=EDGE_LOOP('',(#112));
#114=FACE_BOUND('',#113,.T.);
#115=ADVANCED_FACE('',(#111,#114),#100,.T.);
#116=CARTESIAN_POINT('',(4.900000000000000,-9.900000000000000,9.900000000000000));
#117=DIRECTION('',(1.0,0.0,0.0));
#118=DIRECTION('',(0.0,0.0,-1.0));
#119=AXIS2_PLACEMENT_3D('',#116,#117,#118);
#120=PLANE('',#119);
#121=ORIENTED_EDGE('',*,*,#91,.F.);
#122=EDGE_LOOP('',(#121));
#123=FACE_OUTER_BOUND('',#122,.T.);
#124=ORIENTED_EDGE('',*,*,#63,.T.);
#125=EDGE_LOOP('',(#124));
#126=FACE_BOUND('',#125,.T.);
#127=CARTESIAN_POINT('',(4.900000000000000,0.0,2.299999999999999));
#128=VERTEX_POINT('',#127);
#129=CARTESIAN_POINT('',(4.899999999999999,-4.082638E-16,-1.210769E-15));
#130=DIRECTION('',(1.0,-1.441672E-16,-3.771138E-16));
#131=DIRECTION('',(3.771138E-16,-1.296329E-16,1.0));
#132=AXIS2_PLACEMENT_3D('',#129,#130,#131);
#133=CIRCLE('',#132,2.300000000000000);
#134=EDGE_CURVE('',#128,#128,#133,.T.);
#135=ORIENTED_EDGE('',*,*,#134,.F.);
#136=EDGE_LOOP('',(#135));
#137=FACE_BOUND('',#136,.T.);
#138=ADVANCED_FACE('',(#123,#126,#137),#120,.T.);
#139=CARTESIAN_POINT('',(1.875000000000000,0.0,-4.163336E-17));
#140=DIRECTION('',(1.0,0.0,0.0));
#141=DIRECTION('',(0.0,0.0,-1.0));
#142=AXIS2_PLACEMENT_3D('',#139,#140,#141);
#143=CONICAL_SURFACE('',#142,8.975000000000000,44.999999999999979);
#144=ORIENTED_EDGE('',*,*,#108,.T.);
#145=EDGE_LOOP('',(#144));
#146=FACE_OUTER_BOUND('',#145,.T.);
#147=CARTESIAN_POINT('',(1.900000000000000,0.0,9.000000000000002));
#148=VERTEX_POINT('',#147);
#149=CARTESIAN_POINT('',(1.900000000000000,-9.932823E-16,1.420364E-16));
#150=DIRECTION('',(1.0,-9.210684E-18,-2.409338E-17));
#151=DIRECTION('',(2.409338E-17,1.084202E-16,1.0));
#152=AXIS2_PLACEMENT_3D('',#149,#150,#151);
#153=CIRCLE('',#152,9.000000000000002);
#154=EDGE_CURVE('',#148,#148,#153,.T.);
#155=ORIENTED_EDGE('',*,*,#154,.T.);
#156=EDGE_LOOP('',(#155));
#157=FACE_BOUND('',#156,.T.);
#158=ADVANCED_FACE('',(#146,#157),#143,.T.);
#159=CARTESIAN_POINT('',(1.900000000000000,-9.900000000000000,-9.899999999999999));
#160=DIRECTION('',(-1.0,0.0,0.0));
#161=DIRECTION('',(0.0,0.0,1.0));
#162=AXIS2_PLACEMENT_3D('',#159,#160,#161);
#163=PLANE('',#162);
#164=ORIENTED_EDGE('',*,*,#154,.F.);
#165=EDGE_LOOP('',(#164));
#166=FACE_OUTER_BOUND('',#165,.T.);
#167=ORIENTED_EDGE('',*,*,#52,.T.);
#168=EDGE_LOOP('',(#167));
#169=FACE_BOUND('',#168,.T.);
#170=ADVANCED_FACE('',(#166,#169),#163,.T.);
#171=CARTESIAN_POINT('',(4.800000000000001,0.0,-6.661338E-16));
#172=DIRECTION('',(1.0,0.0,0.0));
#173=DIRECTION('',(0.0,0.0,1.0));
#174=AXIS2_PLACEMENT_3D('',#171,#172,#173);
#175=CYLINDRICAL_SURFACE('',#174,2.300000000000000);
#176=CARTESIAN_POINT('',(6.900000000000000,0.0,2.299999999999999));
#177=VERTEX_POINT('',#176);
#178=CARTESIAN_POINT('',(6.899999999999999,-3.274767E-15,-1.467238E-15));
#179=DIRECTION('',(1.0,-4.785322E-16,-3.771138E-16));
#180=DIRECTION('',(3.771138E-16,-1.178481E-17,1.0));
#181=AXIS2_PLACEMENT_3D('',#178,#179,#180);
#182=CIRCLE('',#181,2.300000000000000);
#183=EDGE_CURVE('',#177,#177,#182,.T.);
#184=ORIENTED_EDGE('',*,*,#183,.F.);
#185=EDGE_LOOP('',(#184));
#186=FACE_BOUND('',#185,.T.);
#187=ORIENTED_EDGE('',*,*,#134,.T.);
#188=EDGE_LOOP('',(#187));
#189=FACE_BOUND('',#188,.T.);
#190=ADVANCED_FACE('',(#186,#189),#175,.T.);
#191=CARTESIAN_POINT('',(6.900000000000000,-2.530000000000000,2.530000000000000));
#192=DIRECTION('',(1.0,0.0,0.0));
#193=DIRECTION('',(0.0,0.0,-1.0));
#194=AXIS2_PLACEMENT_3D('',#191,#192,#193);
#195=PLANE('',#194);
#196=ORIENTED_EDGE('',*,*,#183,.T.);
#197=EDGE_LOOP('',(#196));
#198=FACE_OUTER_BOUND('',#197,.T.);
#199=ADVANCED_FACE('',(#198),#195,.T.);
#200=CLOSED_SHELL('',(#67,#95,#115,#138,#158,#170,#190,#199));
#201=MANIFOLD_SOLID_BREP('LUMP1',#200);
#202=COLOUR_RGB('',0.752941176470588,0.752941176470588,0.752941176470588);
#203=FILL_AREA_STYLE_COLOUR('',#202);
#204=FILL_AREA_STYLE('',(#203));
#205=SURFACE_STYLE_FILL_AREA(#204);
#206=SURFACE_SIDE_STYLE('',(#205));
#207=SURFACE_STYLE_USAGE(.BOTH.,#206);
#208=PRESENTATION_STYLE_ASSIGNMENT((#207));
#209=STYLED_ITEM('',(#208),#67);
#210=STYLED_ITEM('',(#208),#95);
#211=STYLED_ITEM('',(#208),#115);
#212=STYLED_ITEM('',(#208),#138);
#213=STYLED_ITEM('',(#208),#158);
#214=STYLED_ITEM('',(#208),#170);
#215=STYLED_ITEM('',(#208),#190);
#216=STYLED_ITEM('',(#208),#199);
#217=STYLED_ITEM('',(#208),#201);
#218=PRESENTATION_LAYER_ASSIGNMENT('LUMP1','',(#201));
#219=MECHANICAL_DESIGN_GEOMETRIC_PRESENTATION_REPRESENTATION('',(#209,#210,#211,#212,#213,#214,#215,#216,#217),#28);
#220=PRESENTATION_STYLE_ASSIGNMENT((NULL_STYLE(.NULL.)));
#221=DRAUGHTING_MODEL('',(#231,#232),#28);
#222=AXIS2_PLACEMENT_3D('',#223,#224,#225);
#223=CARTESIAN_POINT('',(0.0,0.0,0.0));
#224=DIRECTION('',(0.0,0.0,1.0));
#225=DIRECTION('',(1.0,0.0,0.0));
#226=REPRESENTATION_MAP(#222,#38);
#227=AXIS2_PLACEMENT_3D('',#228,#229,#230);
#228=CARTESIAN_POINT('',(0.0,0.0,0.0));
#229=DIRECTION('',(0.0,0.0,1.0));
#230=DIRECTION('',(1.0,0.0,0.0));
#231=MAPPED_ITEM('',#226,#227);
#232=STYLED_ITEM('',(#220),#231);
ENDSEC;
END-ISO-10303-21;
