ISO-10303-21;
HEADER;
FILE_DESCRIPTION((''),'2;1');
FILE_NAME('COUTEAU','2020-02-16T',('André'),(''),
'CREO PARAMETRIC BY PTC INC, 2014190','CREO PARAMETRIC BY PTC INC, 2014190','');
FILE_SCHEMA(('CONFIG_CONTROL_DESIGN'));
ENDSEC;
DATA;
#1=DIRECTION('',(0.E0,0.E0,1.E0));
#2=VECTOR('',#1,3.543957238847E1);
#3=CARTESIAN_POINT('',(-9.95E0,0.E0,-6.024947641824E1));
#4=LINE('',#3,#2);
#5=CARTESIAN_POINT('',(-1.2E1,0.E0,-2.024947641824E1));
#6=DIRECTION('',(0.E0,-1.E0,0.E0));
#7=DIRECTION('',(4.1E-1,0.E0,-9.120855223059E-1));
#8=AXIS2_PLACEMENT_3D('',#5,#6,#7);
#10=DIRECTION('',(0.E0,0.E0,-1.E0));
#11=VECTOR('',#10,3.543957238847E1);
#12=CARTESIAN_POINT('',(-1.405E1,0.E0,-2.480990402977E1));
#13=LINE('',#12,#11);
#14=CARTESIAN_POINT('',(-1.2E1,0.E0,-6.024947641824E1));
#15=DIRECTION('',(0.E0,-1.E0,0.E0));
#16=DIRECTION('',(-1.E0,0.E0,0.E0));
#17=AXIS2_PLACEMENT_3D('',#14,#15,#16);
#19=DIRECTION('',(8.870108331782E-1,0.E0,-4.617486132350E-1));
#20=VECTOR('',#19,1.352858336240E1);
#21=CARTESIAN_POINT('',(-2.4E1,0.E0,-8.167468915698E1));
#22=LINE('',#21,#20);
#23=DIRECTION('',(0.E0,0.E0,1.E0));
#24=VECTOR('',#23,8.167468915698E1);
#25=CARTESIAN_POINT('',(-2.4E1,0.E0,-8.167468915698E1));
#26=LINE('',#25,#24);
#27=DIRECTION('',(1.E0,0.E0,0.E0));
#28=VECTOR('',#27,2.4E1);
#29=CARTESIAN_POINT('',(-2.4E1,0.E0,0.E0));
#30=LINE('',#29,#28);
#31=DIRECTION('',(0.E0,0.E0,-1.E0));
#32=VECTOR('',#31,8.167468915698E1);
#33=CARTESIAN_POINT('',(0.E0,0.E0,0.E0));
#34=LINE('',#33,#32);
#35=DIRECTION('',(8.870108331782E-1,0.E0,4.617486132350E-1));
#36=VECTOR('',#35,1.352858336240E1);
#37=CARTESIAN_POINT('',(-1.2E1,0.E0,-8.792149376360E1));
#38=LINE('',#37,#36);
#39=DIRECTION('',(2.191391162834E-11,2.191398681365E-11,1.E0));
#40=VECTOR('',#39,3.543957238870E1);
#41=CARTESIAN_POINT('',(-9.950000000776E0,9.999999992234E-1,-6.024947641847E1));
#42=LINE('',#41,#40);
#43=DIRECTION('',(-7.766214344321E-10,1.E0,-2.334488160153E-10));
#44=VECTOR('',#43,9.999999992234E-1);
#45=CARTESIAN_POINT('',(-9.95E0,0.E0,-6.024947641824E1));
#46=LINE('',#45,#44);
#47=DIRECTION('',(-7.071067811865E-1,-7.071067811865E-1,1.348948076919E-10));
#48=VECTOR('',#47,2.828427122951E0);
#49=CARTESIAN_POINT('',(-7.950000002046E0,2.999999997954E0,-6.024947641885E1));
#50=LINE('',#49,#48);
#51=CARTESIAN_POINT('',(-7.95E0,3.E0,-2.318162580051E1));
#52=CARTESIAN_POINT('',(-8.515494504473E0,2.434505495527E0,-2.396270904169E1));
#53=CARTESIAN_POINT('',(-9.196678333207E0,1.753321666792E0,-2.447127143904E1));
#54=CARTESIAN_POINT('',(-9.95E0,1.E0,-2.480990402977E1));
#56=CARTESIAN_POINT('',(-1.405E1,1.E0,-2.480990402977E1));
#57=CARTESIAN_POINT('',(-1.480332166679E1,1.753321666792E0,-2.447127143904E1));
#58=CARTESIAN_POINT('',(-1.548450549553E1,2.434505495527E0,-2.396270904169E1));
#59=CARTESIAN_POINT('',(-1.605E1,3.E0,-2.318162580051E1));
#61=DIRECTION('',(0.E0,1.E0,0.E0));
#62=VECTOR('',#61,1.E0);
#63=CARTESIAN_POINT('',(-9.95E0,0.E0,-2.480990402977E1));
#64=LINE('',#63,#62);
#65=DIRECTION('',(0.E0,0.E0,-1.E0));
#66=VECTOR('',#65,8.900267181161E1);
#67=CARTESIAN_POINT('',(0.E0,3.E0,0.E0));
#68=LINE('',#67,#66);
#69=DIRECTION('',(1.E0,0.E0,0.E0));
#70=VECTOR('',#69,2.4E1);
#71=CARTESIAN_POINT('',(-2.4E1,3.E0,0.E0));
#72=LINE('',#71,#70);
#73=DIRECTION('',(0.E0,0.E0,1.E0));
#74=VECTOR('',#73,8.900267181161E1);
#75=CARTESIAN_POINT('',(-2.4E1,3.E0,-8.900267181161E1));
#76=LINE('',#75,#74);
#77=DIRECTION('',(-8.870108331782E-1,0.E0,4.617486132350E-1));
#78=VECTOR('',#77,1.352858336240E1);
#79=CARTESIAN_POINT('',(-1.2E1,3.E0,-9.524947641824E1));
#80=LINE('',#79,#78);
#81=DIRECTION('',(-8.870108331782E-1,0.E0,-4.617486132350E-1));
#82=VECTOR('',#81,1.352858336240E1);
#83=CARTESIAN_POINT('',(0.E0,3.E0,-8.900267181161E1));
#84=LINE('',#83,#82);
#85=DIRECTION('',(5.518881353596E-11,5.518890937949E-11,1.E0));
#86=VECTOR('',#85,3.706785061834E1);
#87=CARTESIAN_POINT('',(-7.950000002046E0,2.999999997954E0,-6.024947641885E1));
#88=LINE('',#87,#86);
#89=CARTESIAN_POINT('',(-1.2E1,3.E0,-6.024947641824E1));
#90=DIRECTION('',(0.E0,-1.E0,0.E0));
#91=DIRECTION('',(-1.E0,0.E0,0.E0));
#92=AXIS2_PLACEMENT_3D('',#89,#90,#91);
#94=DIRECTION('',(6.702578626902E-10,-6.702573595116E-10,-1.E0));
#95=VECTOR('',#94,3.706785085261E1);
#96=CARTESIAN_POINT('',(-1.605E1,3.E0,-2.318162580051E1));
#97=LINE('',#96,#95);
#98=CARTESIAN_POINT('',(-1.2E1,3.E0,-2.024947641824E1));
#99=DIRECTION('',(0.E0,-1.E0,0.E0));
#100=DIRECTION('',(8.1E-1,0.E0,-5.864298764558E-1));
#101=AXIS2_PLACEMENT_3D('',#98,#99,#100);
#103=DIRECTION('',(0.E0,3.673160649971E-1,-9.300961823355E-1));
#104=VECTOR('',#103,7.878736407917E0);
#105=CARTESIAN_POINT('',(0.E0,0.E0,-8.167468915698E1));
#106=LINE('',#105,#104);
#107=DIRECTION('',(0.E0,1.E0,0.E0));
#108=VECTOR('',#107,3.E0);
#109=CARTESIAN_POINT('',(0.E0,0.E0,0.E0));
#110=LINE('',#109,#108);
#111=DIRECTION('',(8.870108331782E-1,0.E0,4.617486132350E-1));
#112=VECTOR('',#111,1.352858336240E1);
#113=CARTESIAN_POINT('',(-1.2E1,2.893986454505E0,-9.524947641824E1));
#114=LINE('',#113,#112);
#115=DIRECTION('',(0.E0,1.E0,0.E0));
#116=VECTOR('',#115,1.060135454945E-1);
#117=CARTESIAN_POINT('',(0.E0,2.893986454505E0,-8.900267181161E1));
#118=LINE('',#117,#116);
#119=DIRECTION('',(8.870108331782E-1,0.E0,-4.617486132350E-1));
#120=VECTOR('',#119,1.352858336240E1);
#121=CARTESIAN_POINT('',(-2.4E1,2.893986454505E0,-8.900267181161E1));
#122=LINE('',#121,#120);
#123=DIRECTION('',(3.351188437504E-14,1.E0,1.340475375002E-13));
#124=VECTOR('',#123,1.060135454945E-1);
#125=CARTESIAN_POINT('',(-1.2E1,2.893986454505E0,-9.524947641824E1));
#126=LINE('',#125,#124);
#127=DIRECTION('',(0.E0,-3.673160649971E-1,9.300961823355E-1));
#128=VECTOR('',#127,7.878736407917E0);
#129=CARTESIAN_POINT('',(-1.2E1,2.893986454505E0,-9.524947641824E1));
#130=LINE('',#129,#128);
#131=DIRECTION('',(0.E0,-3.673160649971E-1,9.300961823355E-1));
#132=VECTOR('',#131,7.878736407917E0);
#133=CARTESIAN_POINT('',(-2.4E1,2.893986454505E0,-8.900267181161E1));
#134=LINE('',#133,#132);
#135=DIRECTION('',(0.E0,1.E0,0.E0));
#136=VECTOR('',#135,1.060135454945E-1);
#137=CARTESIAN_POINT('',(-2.4E1,2.893986454505E0,-8.900267181161E1));
#138=LINE('',#137,#136);
#139=DIRECTION('',(0.E0,1.E0,0.E0));
#140=VECTOR('',#139,3.E0);
#141=CARTESIAN_POINT('',(-2.4E1,0.E0,0.E0));
#142=LINE('',#141,#140);
#143=DIRECTION('',(7.071067811865E-1,-7.071067811865E-1,5.151836150806E-8));
#144=VECTOR('',#143,2.828427102949E0);
#145=CARTESIAN_POINT('',(-1.604999997515E1,2.999999975155E0,-6.024947665312E1));
#146=LINE('',#145,#144);
#147=CARTESIAN_POINT('',(-1.2E1,1.E0,-6.024947641824E1));
#148=DIRECTION('',(0.E0,-1.E0,0.E0));
#149=DIRECTION('',(-1.E0,0.E0,0.E0));
#150=AXIS2_PLACEMENT_3D('',#147,#148,#149);
#152=DIRECTION('',(9.431907788270E-9,1.E0,-8.916946909470E-8));
#153=VECTOR('',#152,9.999999905681E-1);
#154=CARTESIAN_POINT('',(-1.405E1,0.E0,-6.024947641824E1));
#155=LINE('',#154,#153);
#156=DIRECTION('',(2.661404607109E-10,-2.661403103402E-10,-1.E0));
#157=VECTOR('',#156,3.543957247764E1);
#158=CARTESIAN_POINT('',(-1.405E1,1.E0,-2.480990402977E1));
#159=LINE('',#158,#157);
#160=DIRECTION('',(0.E0,1.E0,0.E0));
#161=VECTOR('',#160,1.E0);
#162=CARTESIAN_POINT('',(-1.405E1,0.E0,-2.480990402977E1));
#163=LINE('',#162,#161);
#164=CARTESIAN_POINT('',(-2.4E1,0.E0,0.E0));
#165=CARTESIAN_POINT('',(0.E0,0.E0,0.E0));
#166=VERTEX_POINT('',#164);
#167=VERTEX_POINT('',#165);
#168=CARTESIAN_POINT('',(-9.95E0,0.E0,-6.024947641824E1));
#169=CARTESIAN_POINT('',(-9.95E0,0.E0,-2.480990402977E1));
#170=VERTEX_POINT('',#168);
#171=VERTEX_POINT('',#169);
#172=CARTESIAN_POINT('',(-1.405E1,0.E0,-2.480990402977E1));
#173=VERTEX_POINT('',#172);
#174=CARTESIAN_POINT('',(-1.405E1,0.E0,-6.024947641824E1));
#175=VERTEX_POINT('',#174);
#176=CARTESIAN_POINT('',(0.E0,3.E0,0.E0));
#177=CARTESIAN_POINT('',(0.E0,3.E0,-8.900267181161E1));
#178=VERTEX_POINT('',#176);
#179=VERTEX_POINT('',#177);
#180=CARTESIAN_POINT('',(-1.2E1,3.E0,-9.524947641824E1));
#181=VERTEX_POINT('',#180);
#182=CARTESIAN_POINT('',(-2.4E1,3.E0,-8.900267181161E1));
#183=VERTEX_POINT('',#182);
#184=CARTESIAN_POINT('',(-2.4E1,3.E0,0.E0));
#185=VERTEX_POINT('',#184);
#186=VERTEX_POINT('',#51);
#187=VERTEX_POINT('',#54);
#188=CARTESIAN_POINT('',(-9.950000000776E0,9.999999992234E-1,
-6.024947641847E1));
#189=VERTEX_POINT('',#188);
#190=CARTESIAN_POINT('',(-7.950000002046E0,2.999999997954E0,-6.024947641885E1));
#191=VERTEX_POINT('',#190);
#192=CARTESIAN_POINT('',(-1.605E1,3.E0,-6.024947641824E1));
#193=VERTEX_POINT('',#192);
#194=CARTESIAN_POINT('',(-1.405E1,1.E0,-6.024947641824E1));
#195=VERTEX_POINT('',#194);
#196=VERTEX_POINT('',#56);
#197=VERTEX_POINT('',#59);
#198=CARTESIAN_POINT('',(-2.4E1,2.893986454505E0,-8.900267181161E1));
#199=CARTESIAN_POINT('',(-2.4E1,0.E0,-8.167468915698E1));
#200=VERTEX_POINT('',#198);
#201=VERTEX_POINT('',#199);
#202=CARTESIAN_POINT('',(-1.2E1,0.E0,-8.792149376360E1));
#203=VERTEX_POINT('',#202);
#204=CARTESIAN_POINT('',(-1.2E1,2.893986454505E0,-9.524947641824E1));
#205=VERTEX_POINT('',#204);
#206=CARTESIAN_POINT('',(0.E0,0.E0,-8.167468915698E1));
#207=CARTESIAN_POINT('',(0.E0,2.893986454505E0,-8.900267181161E1));
#208=VERTEX_POINT('',#206);
#209=VERTEX_POINT('',#207);
#210=CARTESIAN_POINT('',(0.E0,0.E0,0.E0));
#211=DIRECTION('',(0.E0,1.E0,0.E0));
#212=DIRECTION('',(1.E0,0.E0,0.E0));
#213=AXIS2_PLACEMENT_3D('',#210,#211,#212);
#214=PLANE('',#213);
#216=ORIENTED_EDGE('',*,*,#215,.F.);
#218=ORIENTED_EDGE('',*,*,#217,.T.);
#220=ORIENTED_EDGE('',*,*,#219,.T.);
#222=ORIENTED_EDGE('',*,*,#221,.T.);
#224=ORIENTED_EDGE('',*,*,#223,.F.);
#225=EDGE_LOOP('',(#216,#218,#220,#222,#224));
#226=FACE_OUTER_BOUND('',#225,.F.);
#228=ORIENTED_EDGE('',*,*,#227,.T.);
#230=ORIENTED_EDGE('',*,*,#229,.T.);
#232=ORIENTED_EDGE('',*,*,#231,.T.);
#234=ORIENTED_EDGE('',*,*,#233,.T.);
#235=EDGE_LOOP('',(#228,#230,#232,#234));
#236=FACE_BOUND('',#235,.F.);
#237=ADVANCED_FACE('',(#226,#236),#214,.F.);
#238=CARTESIAN_POINT('',(-9.95E0,0.E0,-6.024947641824E1));
#239=DIRECTION('',(-1.E0,0.E0,0.E0));
#240=DIRECTION('',(0.E0,0.E0,1.E0));
#241=AXIS2_PLACEMENT_3D('',#238,#239,#240);
#242=PLANE('',#241);
#244=ORIENTED_EDGE('',*,*,#243,.T.);
#246=ORIENTED_EDGE('',*,*,#245,.F.);
#247=ORIENTED_EDGE('',*,*,#227,.F.);
#249=ORIENTED_EDGE('',*,*,#248,.T.);
#250=EDGE_LOOP('',(#244,#246,#247,#249));
#251=FACE_OUTER_BOUND('',#250,.F.);
#252=ADVANCED_FACE('',(#251),#242,.T.);
#253=CARTESIAN_POINT('',(-8.95E0,2.E0,-4.252969022400E1));
#254=DIRECTION('',(-7.071067811865E-1,7.071067811865E-1,0.E0));
#255=DIRECTION('',(-7.071067811865E-1,-7.071067811865E-1,0.E0));
#256=AXIS2_PLACEMENT_3D('',#253,#254,#255);
#257=PLANE('',#256);
#259=ORIENTED_EDGE('',*,*,#258,.T.);
#260=ORIENTED_EDGE('',*,*,#243,.F.);
#262=ORIENTED_EDGE('',*,*,#261,.F.);
#264=ORIENTED_EDGE('',*,*,#263,.T.);
#265=EDGE_LOOP('',(#259,#260,#262,#264));
#266=FACE_OUTER_BOUND('',#265,.F.);
#267=ADVANCED_FACE('',(#266),#257,.T.);
#268=CARTESIAN_POINT('',(-1.2E1,0.E0,-2.024947641824E1));
#269=DIRECTION('',(0.E0,1.E0,0.E0));
#270=DIRECTION('',(1.E0,0.E0,0.E0));
#271=AXIS2_PLACEMENT_3D('',#268,#269,#270);
#272=CYLINDRICAL_SURFACE('',#271,5.E0);
#273=ORIENTED_EDGE('',*,*,#258,.F.);
#275=ORIENTED_EDGE('',*,*,#274,.T.);
#277=ORIENTED_EDGE('',*,*,#276,.F.);
#279=ORIENTED_EDGE('',*,*,#278,.F.);
#280=ORIENTED_EDGE('',*,*,#229,.F.);
#281=ORIENTED_EDGE('',*,*,#245,.T.);
#282=EDGE_LOOP('',(#273,#275,#277,#279,#280,#281));
#283=FACE_OUTER_BOUND('',#282,.F.);
#284=ADVANCED_FACE('',(#283),#272,.F.);
#285=CARTESIAN_POINT('',(0.E0,3.E0,0.E0));
#286=DIRECTION('',(0.E0,1.E0,0.E0));
#287=DIRECTION('',(1.E0,0.E0,0.E0));
#288=AXIS2_PLACEMENT_3D('',#285,#286,#287);
#289=PLANE('',#288);
#291=ORIENTED_EDGE('',*,*,#290,.F.);
#293=ORIENTED_EDGE('',*,*,#292,.F.);
#295=ORIENTED_EDGE('',*,*,#294,.F.);
#297=ORIENTED_EDGE('',*,*,#296,.F.);
#299=ORIENTED_EDGE('',*,*,#298,.F.);
#300=EDGE_LOOP('',(#291,#293,#295,#297,#299));
#301=FACE_OUTER_BOUND('',#300,.F.);
#302=ORIENTED_EDGE('',*,*,#263,.F.);
#304=ORIENTED_EDGE('',*,*,#303,.F.);
#306=ORIENTED_EDGE('',*,*,#305,.F.);
#307=ORIENTED_EDGE('',*,*,#274,.F.);
#308=EDGE_LOOP('',(#302,#304,#306,#307));
#309=FACE_BOUND('',#308,.F.);
#310=ADVANCED_FACE('',(#301,#309),#289,.T.);
#311=CARTESIAN_POINT('',(0.E0,0.E0,0.E0));
#312=DIRECTION('',(1.E0,0.E0,0.E0));
#313=DIRECTION('',(0.E0,0.E0,-1.E0));
#314=AXIS2_PLACEMENT_3D('',#311,#312,#313);
#315=PLANE('',#314);
#317=ORIENTED_EDGE('',*,*,#316,.F.);
#318=ORIENTED_EDGE('',*,*,#221,.F.);
#320=ORIENTED_EDGE('',*,*,#319,.T.);
#321=ORIENTED_EDGE('',*,*,#290,.T.);
#323=ORIENTED_EDGE('',*,*,#322,.F.);
#324=EDGE_LOOP('',(#317,#318,#320,#321,#323));
#325=FACE_OUTER_BOUND('',#324,.F.);
#326=ADVANCED_FACE('',(#325),#315,.T.);
#327=CARTESIAN_POINT('',(-7.500682993014E0,1.446993227253E0,-8.924328890710E1));
#328=DIRECTION('',(1.878100808921E-1,-9.135454576426E-1,-3.607798086588E-1));
#329=DIRECTION('',(4.218283481936E-1,4.067366430758E-1,-8.103247175297E-1));
#330=AXIS2_PLACEMENT_3D('',#327,#328,#329);
#331=PLANE('',#330);
#332=ORIENTED_EDGE('',*,*,#316,.T.);
#334=ORIENTED_EDGE('',*,*,#333,.F.);
#336=ORIENTED_EDGE('',*,*,#335,.T.);
#337=ORIENTED_EDGE('',*,*,#223,.T.);
#338=EDGE_LOOP('',(#332,#334,#336,#337));
#339=FACE_OUTER_BOUND('',#338,.F.);
#340=ADVANCED_FACE('',(#339),#331,.T.);
#341=CARTESIAN_POINT('',(0.E0,0.E0,-8.900267181161E1));
#342=DIRECTION('',(4.617486132350E-1,0.E0,-8.870108331782E-1));
#343=DIRECTION('',(-8.870108331782E-1,0.E0,-4.617486132350E-1));
#344=AXIS2_PLACEMENT_3D('',#341,#342,#343);
#345=PLANE('',#344);
#346=ORIENTED_EDGE('',*,*,#333,.T.);
#347=ORIENTED_EDGE('',*,*,#322,.T.);
#348=ORIENTED_EDGE('',*,*,#298,.T.);
#350=ORIENTED_EDGE('',*,*,#349,.F.);
#351=EDGE_LOOP('',(#346,#347,#348,#350));
#352=FACE_OUTER_BOUND('',#351,.F.);
#353=ADVANCED_FACE('',(#352),#345,.T.);
#354=CARTESIAN_POINT('',(-1.2E1,0.E0,-9.524947641824E1));
#355=DIRECTION('',(-4.617486132350E-1,0.E0,-8.870108331782E-1));
#356=DIRECTION('',(-8.870108331782E-1,0.E0,4.617486132350E-1));
#357=AXIS2_PLACEMENT_3D('',#354,#355,#356);
#358=PLANE('',#357);
#360=ORIENTED_EDGE('',*,*,#359,.T.);
#361=ORIENTED_EDGE('',*,*,#349,.T.);
#362=ORIENTED_EDGE('',*,*,#296,.T.);
#364=ORIENTED_EDGE('',*,*,#363,.F.);
#365=EDGE_LOOP('',(#360,#361,#362,#364));
#366=FACE_OUTER_BOUND('',#365,.F.);
#367=ADVANCED_FACE('',(#366),#358,.T.);
#368=CARTESIAN_POINT('',(-1.649931700699E1,1.446993227253E0,-8.924328890710E1));
#369=DIRECTION('',(-1.878100808921E-1,-9.135454576426E-1,-3.607798086588E-1));
#370=DIRECTION('',(-4.218283481936E-1,4.067366430758E-1,-8.103247175297E-1));
#371=AXIS2_PLACEMENT_3D('',#368,#369,#370);
#372=PLANE('',#371);
#374=ORIENTED_EDGE('',*,*,#373,.T.);
#375=ORIENTED_EDGE('',*,*,#215,.T.);
#376=ORIENTED_EDGE('',*,*,#335,.F.);
#377=ORIENTED_EDGE('',*,*,#359,.F.);
#378=EDGE_LOOP('',(#374,#375,#376,#377));
#379=FACE_OUTER_BOUND('',#378,.F.);
#380=ADVANCED_FACE('',(#379),#372,.T.);
#381=CARTESIAN_POINT('',(-2.4E1,0.E0,-8.900267181161E1));
#382=DIRECTION('',(-1.E0,0.E0,0.E0));
#383=DIRECTION('',(0.E0,0.E0,1.E0));
#384=AXIS2_PLACEMENT_3D('',#381,#382,#383);
#385=PLANE('',#384);
#386=ORIENTED_EDGE('',*,*,#373,.F.);
#387=ORIENTED_EDGE('',*,*,#363,.T.);
#388=ORIENTED_EDGE('',*,*,#294,.T.);
#390=ORIENTED_EDGE('',*,*,#389,.F.);
#391=ORIENTED_EDGE('',*,*,#217,.F.);
#392=EDGE_LOOP('',(#386,#387,#388,#390,#391));
#393=FACE_OUTER_BOUND('',#392,.F.);
#394=ADVANCED_FACE('',(#393),#385,.T.);
#395=CARTESIAN_POINT('',(-2.4E1,0.E0,0.E0));
#396=DIRECTION('',(0.E0,0.E0,1.E0));
#397=DIRECTION('',(1.E0,0.E0,0.E0));
#398=AXIS2_PLACEMENT_3D('',#395,#396,#397);
#399=PLANE('',#398);
#400=ORIENTED_EDGE('',*,*,#219,.F.);
#401=ORIENTED_EDGE('',*,*,#389,.T.);
#402=ORIENTED_EDGE('',*,*,#292,.T.);
#403=ORIENTED_EDGE('',*,*,#319,.F.);
#404=EDGE_LOOP('',(#400,#401,#402,#403));
#405=FACE_OUTER_BOUND('',#404,.F.);
#406=ADVANCED_FACE('',(#405),#399,.T.);
#407=CARTESIAN_POINT('',(-1.2E1,1.999999984725E0,-6.024947641824E1));
#408=DIRECTION('',(0.E0,1.E0,0.E0));
#409=DIRECTION('',(0.E0,0.E0,-1.E0));
#410=AXIS2_PLACEMENT_3D('',#407,#408,#409);
#411=CONICAL_SURFACE('',#410,3.049999984725E0,4.5E1);
#412=ORIENTED_EDGE('',*,*,#303,.T.);
#413=ORIENTED_EDGE('',*,*,#261,.T.);
#415=ORIENTED_EDGE('',*,*,#414,.F.);
#417=ORIENTED_EDGE('',*,*,#416,.F.);
#418=EDGE_LOOP('',(#412,#413,#415,#417));
#419=FACE_OUTER_BOUND('',#418,.F.);
#420=ADVANCED_FACE('',(#419),#411,.F.);
#421=CARTESIAN_POINT('',(-1.2E1,0.E0,-6.024947641824E1));
#422=DIRECTION('',(0.E0,1.E0,0.E0));
#423=DIRECTION('',(1.E0,0.E0,0.E0));
#424=AXIS2_PLACEMENT_3D('',#421,#422,#423);
#425=CYLINDRICAL_SURFACE('',#424,2.05E0);
#426=ORIENTED_EDGE('',*,*,#414,.T.);
#427=ORIENTED_EDGE('',*,*,#248,.F.);
#428=ORIENTED_EDGE('',*,*,#233,.F.);
#430=ORIENTED_EDGE('',*,*,#429,.T.);
#431=EDGE_LOOP('',(#426,#427,#428,#430));
#432=FACE_OUTER_BOUND('',#431,.F.);
#433=ADVANCED_FACE('',(#432),#425,.F.);
#434=CARTESIAN_POINT('',(-1.405E1,0.E0,-2.480990402977E1));
#435=DIRECTION('',(1.E0,0.E0,0.E0));
#436=DIRECTION('',(0.E0,0.E0,-1.E0));
#437=AXIS2_PLACEMENT_3D('',#434,#435,#436);
#438=PLANE('',#437);
#440=ORIENTED_EDGE('',*,*,#439,.T.);
#441=ORIENTED_EDGE('',*,*,#429,.F.);
#442=ORIENTED_EDGE('',*,*,#231,.F.);
#443=ORIENTED_EDGE('',*,*,#278,.T.);
#444=EDGE_LOOP('',(#440,#441,#442,#443));
#445=FACE_OUTER_BOUND('',#444,.F.);
#446=ADVANCED_FACE('',(#445),#438,.T.);
#447=CARTESIAN_POINT('',(-1.505E1,2.E0,-4.252969022400E1));
#448=DIRECTION('',(7.071067811865E-1,7.071067811865E-1,0.E0));
#449=DIRECTION('',(7.071067811865E-1,-7.071067811865E-1,0.E0));
#450=AXIS2_PLACEMENT_3D('',#447,#448,#449);
#451=PLANE('',#450);
#452=ORIENTED_EDGE('',*,*,#276,.T.);
#453=ORIENTED_EDGE('',*,*,#305,.T.);
#454=ORIENTED_EDGE('',*,*,#416,.T.);
#455=ORIENTED_EDGE('',*,*,#439,.F.);
#456=EDGE_LOOP('',(#452,#453,#454,#455));
#457=FACE_OUTER_BOUND('',#456,.F.);
#458=ADVANCED_FACE('',(#457),#451,.T.);
#459=CLOSED_SHELL('',(#237,#252,#267,#284,#310,#326,#340,#353,#367,#380,#394,
#406,#420,#433,#446,#458));
#460=MANIFOLD_SOLID_BREP('',#459);
#462=DIMENSIONAL_EXPONENTS(0.E0,0.E0,0.E0,0.E0,0.E0,0.E0,0.E0);
#464=PLANE_ANGLE_MEASURE_WITH_UNIT(PLANE_ANGLE_MEASURE(1.745329251994E-2),#463);
#465=(CONVERSION_BASED_UNIT('DEGREE',#464)NAMED_UNIT(*)PLANE_ANGLE_UNIT());
#467=UNCERTAINTY_MEASURE_WITH_UNIT(LENGTH_MEASURE(9.990409485909E-3),#461,
'closure',
'Maximum model space distance between geometric entities at asserted connectivities');
#468=(GEOMETRIC_REPRESENTATION_CONTEXT(3)GLOBAL_UNCERTAINTY_ASSIGNED_CONTEXT((
#467))GLOBAL_UNIT_ASSIGNED_CONTEXT((#461,#465,#466))REPRESENTATION_CONTEXT
('ID1','3'));
#470=APPLICATION_CONTEXT(
'CONFIGURATION CONTROLLED 3D DESIGNS OF MECHANICAL PARTS AND ASSEMBLIES');
#471=APPLICATION_PROTOCOL_DEFINITION('international standard',
'config_control_design',1994,#470);
#472=DESIGN_CONTEXT('',#470,'design');
#473=MECHANICAL_CONTEXT('',#470,'mechanical');
#474=PRODUCT('COUTEAU','COUTEAU','NOT SPECIFIED',(#473));
#475=PRODUCT_DEFINITION_FORMATION_WITH_SPECIFIED_SOURCE('1','LAST_VERSION',#474,
.MADE.);
#479=PRODUCT_CATEGORY('part','');
#480=PRODUCT_RELATED_PRODUCT_CATEGORY('detail','',(#474));
#481=PRODUCT_CATEGORY_RELATIONSHIP('','',#479,#480);
#482=SECURITY_CLASSIFICATION_LEVEL('unclassified');
#483=SECURITY_CLASSIFICATION('','',#482);
#484=CC_DESIGN_SECURITY_CLASSIFICATION(#483,(#475));
#485=APPROVAL_STATUS('approved');
#486=APPROVAL(#485,'');
#487=CC_DESIGN_APPROVAL(#486,(#483,#475,#476));
#488=CALENDAR_DATE(120,16,2);
#489=COORDINATED_UNIVERSAL_TIME_OFFSET(1,0,.AHEAD.);
#490=LOCAL_TIME(13,55,4.2E1,#489);
#491=DATE_AND_TIME(#488,#490);
#492=APPROVAL_DATE_TIME(#491,#486);
#493=DATE_TIME_ROLE('creation_date');
#494=CC_DESIGN_DATE_AND_TIME_ASSIGNMENT(#491,#493,(#476));
#495=DATE_TIME_ROLE('classification_date');
#496=CC_DESIGN_DATE_AND_TIME_ASSIGNMENT(#491,#495,(#483));
#497=PERSON('UNSPECIFIED','UNSPECIFIED',$,$,$,$);
#498=ORGANIZATION('UNSPECIFIED','UNSPECIFIED','UNSPECIFIED');
#499=PERSON_AND_ORGANIZATION(#497,#498);
#500=APPROVAL_ROLE('approver');
#501=APPROVAL_PERSON_ORGANIZATION(#499,#486,#500);
#502=PERSON_AND_ORGANIZATION_ROLE('creator');
#503=CC_DESIGN_PERSON_AND_ORGANIZATION_ASSIGNMENT(#499,#502,(#475,#476));
#504=PERSON_AND_ORGANIZATION_ROLE('design_supplier');
#505=CC_DESIGN_PERSON_AND_ORGANIZATION_ASSIGNMENT(#499,#504,(#475));
#506=PERSON_AND_ORGANIZATION_ROLE('classification_officer');
#507=CC_DESIGN_PERSON_AND_ORGANIZATION_ASSIGNMENT(#499,#506,(#483));
#508=PERSON_AND_ORGANIZATION_ROLE('design_owner');
#509=CC_DESIGN_PERSON_AND_ORGANIZATION_ASSIGNMENT(#499,#508,(#474));
#9=CIRCLE('',#8,5.E0);
#18=CIRCLE('',#17,2.05E0);
#55=B_SPLINE_CURVE_WITH_KNOTS('',3,(#51,#52,#53,#54),.UNSPECIFIED.,.F.,.F.,(4,
4),(0.E0,1.E0),.UNSPECIFIED.);
#60=B_SPLINE_CURVE_WITH_KNOTS('',3,(#56,#57,#58,#59),.UNSPECIFIED.,.F.,.F.,(4,
4),(0.E0,1.E0),.UNSPECIFIED.);
#93=CIRCLE('',#92,4.05E0);
#102=CIRCLE('',#101,5.E0);
#151=CIRCLE('',#150,2.05E0);
#215=EDGE_CURVE('',#201,#203,#22,.T.);
#217=EDGE_CURVE('',#201,#166,#26,.T.);
#219=EDGE_CURVE('',#166,#167,#30,.T.);
#221=EDGE_CURVE('',#167,#208,#34,.T.);
#223=EDGE_CURVE('',#203,#208,#38,.T.);
#227=EDGE_CURVE('',#170,#171,#4,.T.);
#229=EDGE_CURVE('',#171,#173,#9,.T.);
#231=EDGE_CURVE('',#173,#175,#13,.T.);
#233=EDGE_CURVE('',#175,#170,#18,.T.);
#243=EDGE_CURVE('',#189,#187,#42,.T.);
#245=EDGE_CURVE('',#171,#187,#64,.T.);
#248=EDGE_CURVE('',#170,#189,#46,.T.);
#258=EDGE_CURVE('',#186,#187,#55,.T.);
#261=EDGE_CURVE('',#191,#189,#50,.T.);
#263=EDGE_CURVE('',#191,#186,#88,.T.);
#274=EDGE_CURVE('',#186,#197,#102,.T.);
#276=EDGE_CURVE('',#196,#197,#60,.T.);
#278=EDGE_CURVE('',#173,#196,#163,.T.);
#290=EDGE_CURVE('',#178,#179,#68,.T.);
#292=EDGE_CURVE('',#185,#178,#72,.T.);
#294=EDGE_CURVE('',#183,#185,#76,.T.);
#296=EDGE_CURVE('',#181,#183,#80,.T.);
#298=EDGE_CURVE('',#179,#181,#84,.T.);
#303=EDGE_CURVE('',#193,#191,#93,.T.);
#305=EDGE_CURVE('',#197,#193,#97,.T.);
#316=EDGE_CURVE('',#208,#209,#106,.T.);
#319=EDGE_CURVE('',#167,#178,#110,.T.);
#322=EDGE_CURVE('',#209,#179,#118,.T.);
#333=EDGE_CURVE('',#205,#209,#114,.T.);
#335=EDGE_CURVE('',#205,#203,#130,.T.);
#349=EDGE_CURVE('',#205,#181,#126,.T.);
#359=EDGE_CURVE('',#200,#205,#122,.T.);
#363=EDGE_CURVE('',#200,#183,#138,.T.);
#373=EDGE_CURVE('',#200,#201,#134,.T.);
#389=EDGE_CURVE('',#166,#185,#142,.T.);
#414=EDGE_CURVE('',#195,#189,#151,.T.);
#416=EDGE_CURVE('',#193,#195,#146,.T.);
#429=EDGE_CURVE('',#175,#195,#155,.T.);
#439=EDGE_CURVE('',#196,#195,#159,.T.);
#461=(LENGTH_UNIT()NAMED_UNIT(*)SI_UNIT(.MILLI.,.METRE.));
#463=(NAMED_UNIT(*)PLANE_ANGLE_UNIT()SI_UNIT($,.RADIAN.));
#466=(NAMED_UNIT(*)SI_UNIT($,.STERADIAN.)SOLID_ANGLE_UNIT());
#469=ADVANCED_BREP_SHAPE_REPRESENTATION('',(#460),#468);
#476=PRODUCT_DEFINITION('design','',#475,#472);
#477=PRODUCT_DEFINITION_SHAPE('','SHAPE FOR COUTEAU.',#476);
#478=SHAPE_DEFINITION_REPRESENTATION(#477,#469);
ENDSEC;
END-ISO-10303-21;
