ISO-10303-21;
HEADER;
/* Generated by software containing ST-Developer
 * from STEP Tools, Inc. (www.steptools.com) 
 */

FILE_DESCRIPTION(
/* description */ (''),
/* implementation_level */ '2;1');

FILE_NAME(
/* name */ 'C:/Users/anderson/Desktop/douille de sertissage v1.step',
/* time_stamp */ '2020-12-03T14:47:15+01:00',
/* author */ (''),
/* organization */ (''),
/* preprocessor_version */ 'ST-DEVELOPER v18.1',
/* originating_system */ 'Autodesk Translation Framework v9.3.0.1241',
/* authorisation */ '');

FILE_SCHEMA (('AUTOMOTIVE_DESIGN { 1 0 10303 214 3 1 1 }'));
ENDSEC;

DATA;
#10=MECHANICAL_DESIGN_GEOMETRIC_PRESENTATION_REPRESENTATION('',(#13),#316);
#11=SHAPE_REPRESENTATION_RELATIONSHIP('SRR','None',#323,#12);
#12=ADVANCED_BREP_SHAPE_REPRESENTATION('',(#14),#315);
#13=STYLED_ITEM('',(#332),#14);
#14=MANIFOLD_SOLID_BREP('Corps1',#169);
#15=TOROIDAL_SURFACE('',#195,3.4,1.5);
#16=CYLINDRICAL_SURFACE('',#188,3.5);
#17=CYLINDRICAL_SURFACE('',#193,7.1);
#18=CYLINDRICAL_SURFACE('',#199,4.9);
#19=CYLINDRICAL_SURFACE('',#205,5.725);
#20=FACE_BOUND('',#39,.T.);
#21=FACE_BOUND('',#47,.T.);
#22=FACE_BOUND('',#50,.T.);
#23=PLANE('',#186);
#24=PLANE('',#203);
#25=PLANE('',#207);
#26=FACE_OUTER_BOUND('',#37,.T.);
#27=FACE_OUTER_BOUND('',#38,.T.);
#28=FACE_OUTER_BOUND('',#40,.T.);
#29=FACE_OUTER_BOUND('',#41,.T.);
#30=FACE_OUTER_BOUND('',#42,.T.);
#31=FACE_OUTER_BOUND('',#43,.T.);
#32=FACE_OUTER_BOUND('',#44,.T.);
#33=FACE_OUTER_BOUND('',#45,.T.);
#34=FACE_OUTER_BOUND('',#46,.T.);
#35=FACE_OUTER_BOUND('',#48,.T.);
#36=FACE_OUTER_BOUND('',#49,.T.);
#37=EDGE_LOOP('',(#113,#114,#115,#116));
#38=EDGE_LOOP('',(#117));
#39=EDGE_LOOP('',(#118));
#40=EDGE_LOOP('',(#119,#120,#121,#122,#123));
#41=EDGE_LOOP('',(#124,#125,#126,#127));
#42=EDGE_LOOP('',(#128,#129,#130,#131));
#43=EDGE_LOOP('',(#132,#133,#134,#135,#136,#137));
#44=EDGE_LOOP('',(#138,#139,#140,#141,#142));
#45=EDGE_LOOP('',(#143,#144,#145,#146));
#46=EDGE_LOOP('',(#147));
#47=EDGE_LOOP('',(#148));
#48=EDGE_LOOP('',(#149,#150,#151,#152));
#49=EDGE_LOOP('',(#153));
#50=EDGE_LOOP('',(#154));
#51=LINE('',#272,#58);
#52=LINE('',#282,#59);
#53=LINE('',#286,#60);
#54=LINE('',#290,#61);
#55=LINE('',#300,#62);
#56=LINE('',#304,#63);
#57=LINE('',#311,#64);
#58=VECTOR('',#214,3.75);
#59=VECTOR('',#227,3.5);
#60=VECTOR('',#232,6.85);
#61=VECTOR('',#237,7.1);
#62=VECTOR('',#250,4.9);
#63=VECTOR('',#255,6.415);
#64=VECTOR('',#264,5.725);
#65=CIRCLE('',#184,4.);
#66=CIRCLE('',#185,3.5);
#67=CIRCLE('',#187,6.6);
#68=CIRCLE('',#189,3.5);
#69=CIRCLE('',#190,3.5);
#70=CIRCLE('',#192,7.1);
#71=CIRCLE('',#194,7.1);
#72=CIRCLE('',#196,4.9);
#73=CIRCLE('',#197,4.9);
#74=CIRCLE('',#198,1.5);
#75=CIRCLE('',#200,4.9);
#76=CIRCLE('',#202,5.73);
#77=CIRCLE('',#204,5.725);
#78=CIRCLE('',#206,5.725);
#79=VERTEX_POINT('',#269);
#80=VERTEX_POINT('',#271);
#81=VERTEX_POINT('',#275);
#82=VERTEX_POINT('',#278);
#83=VERTEX_POINT('',#279);
#84=VERTEX_POINT('',#284);
#85=VERTEX_POINT('',#288);
#86=VERTEX_POINT('',#292);
#87=VERTEX_POINT('',#293);
#88=VERTEX_POINT('',#298);
#89=VERTEX_POINT('',#302);
#90=VERTEX_POINT('',#306);
#91=VERTEX_POINT('',#309);
#92=EDGE_CURVE('',#79,#79,#65,.T.);
#93=EDGE_CURVE('',#79,#80,#51,.T.);
#94=EDGE_CURVE('',#80,#80,#66,.T.);
#95=EDGE_CURVE('',#81,#81,#67,.T.);
#96=EDGE_CURVE('',#82,#83,#68,.T.);
#97=EDGE_CURVE('',#83,#82,#69,.T.);
#98=EDGE_CURVE('',#82,#80,#52,.T.);
#99=EDGE_CURVE('',#84,#84,#70,.T.);
#100=EDGE_CURVE('',#84,#81,#53,.T.);
#101=EDGE_CURVE('',#85,#85,#71,.T.);
#102=EDGE_CURVE('',#85,#84,#54,.T.);
#103=EDGE_CURVE('',#86,#87,#72,.T.);
#104=EDGE_CURVE('',#87,#86,#73,.T.);
#105=EDGE_CURVE('',#86,#83,#74,.T.);
#106=EDGE_CURVE('',#88,#88,#75,.T.);
#107=EDGE_CURVE('',#88,#87,#55,.T.);
#108=EDGE_CURVE('',#89,#89,#76,.T.);
#109=EDGE_CURVE('',#89,#85,#56,.T.);
#110=EDGE_CURVE('',#90,#90,#77,.T.);
#111=EDGE_CURVE('',#91,#91,#78,.T.);
#112=EDGE_CURVE('',#91,#90,#57,.T.);
#113=ORIENTED_EDGE('',*,*,#92,.T.);
#114=ORIENTED_EDGE('',*,*,#93,.T.);
#115=ORIENTED_EDGE('',*,*,#94,.T.);
#116=ORIENTED_EDGE('',*,*,#93,.F.);
#117=ORIENTED_EDGE('',*,*,#95,.F.);
#118=ORIENTED_EDGE('',*,*,#92,.F.);
#119=ORIENTED_EDGE('',*,*,#96,.T.);
#120=ORIENTED_EDGE('',*,*,#97,.T.);
#121=ORIENTED_EDGE('',*,*,#98,.T.);
#122=ORIENTED_EDGE('',*,*,#94,.F.);
#123=ORIENTED_EDGE('',*,*,#98,.F.);
#124=ORIENTED_EDGE('',*,*,#99,.T.);
#125=ORIENTED_EDGE('',*,*,#100,.T.);
#126=ORIENTED_EDGE('',*,*,#95,.T.);
#127=ORIENTED_EDGE('',*,*,#100,.F.);
#128=ORIENTED_EDGE('',*,*,#101,.F.);
#129=ORIENTED_EDGE('',*,*,#102,.T.);
#130=ORIENTED_EDGE('',*,*,#99,.F.);
#131=ORIENTED_EDGE('',*,*,#102,.F.);
#132=ORIENTED_EDGE('',*,*,#103,.T.);
#133=ORIENTED_EDGE('',*,*,#104,.T.);
#134=ORIENTED_EDGE('',*,*,#105,.T.);
#135=ORIENTED_EDGE('',*,*,#96,.F.);
#136=ORIENTED_EDGE('',*,*,#97,.F.);
#137=ORIENTED_EDGE('',*,*,#105,.F.);
#138=ORIENTED_EDGE('',*,*,#106,.F.);
#139=ORIENTED_EDGE('',*,*,#107,.T.);
#140=ORIENTED_EDGE('',*,*,#103,.F.);
#141=ORIENTED_EDGE('',*,*,#104,.F.);
#142=ORIENTED_EDGE('',*,*,#107,.F.);
#143=ORIENTED_EDGE('',*,*,#108,.T.);
#144=ORIENTED_EDGE('',*,*,#109,.T.);
#145=ORIENTED_EDGE('',*,*,#101,.T.);
#146=ORIENTED_EDGE('',*,*,#109,.F.);
#147=ORIENTED_EDGE('',*,*,#108,.F.);
#148=ORIENTED_EDGE('',*,*,#110,.T.);
#149=ORIENTED_EDGE('',*,*,#111,.F.);
#150=ORIENTED_EDGE('',*,*,#112,.T.);
#151=ORIENTED_EDGE('',*,*,#110,.F.);
#152=ORIENTED_EDGE('',*,*,#112,.F.);
#153=ORIENTED_EDGE('',*,*,#111,.T.);
#154=ORIENTED_EDGE('',*,*,#106,.T.);
#155=CONICAL_SURFACE('',#183,3.75,0.78539816339745);
#156=CONICAL_SURFACE('',#191,6.85,0.785398163397449);
#157=CONICAL_SURFACE('',#201,6.415,0.785398163397448);
#158=ADVANCED_FACE('',(#26),#155,.F.);
#159=ADVANCED_FACE('',(#27,#20),#23,.F.);
#160=ADVANCED_FACE('',(#28),#16,.F.);
#161=ADVANCED_FACE('',(#29),#156,.T.);
#162=ADVANCED_FACE('',(#30),#17,.T.);
#163=ADVANCED_FACE('',(#31),#15,.F.);
#164=ADVANCED_FACE('',(#32),#18,.F.);
#165=ADVANCED_FACE('',(#33),#157,.T.);
#166=ADVANCED_FACE('',(#34,#21),#24,.T.);
#167=ADVANCED_FACE('',(#35),#19,.T.);
#168=ADVANCED_FACE('',(#36,#22),#25,.T.);
#169=CLOSED_SHELL('',(#158,#159,#160,#161,#162,#163,#164,#165,#166,#167,
#168));
#170=DERIVED_UNIT_ELEMENT(#172,1.);
#171=DERIVED_UNIT_ELEMENT(#318,3.);
#172=(
MASS_UNIT()
NAMED_UNIT(*)
SI_UNIT(.KILO.,.GRAM.)
);
#173=DERIVED_UNIT((#170,#171));
#174=MEASURE_REPRESENTATION_ITEM('density measure',
POSITIVE_RATIO_MEASURE(7850.),#173);
#175=PROPERTY_DEFINITION_REPRESENTATION(#180,#177);
#176=PROPERTY_DEFINITION_REPRESENTATION(#181,#178);
#177=REPRESENTATION('material name',(#179),#315);
#178=REPRESENTATION('density',(#174),#315);
#179=DESCRIPTIVE_REPRESENTATION_ITEM('Acier','Acier');
#180=PROPERTY_DEFINITION('material property','material name',#325);
#181=PROPERTY_DEFINITION('material property','density of part',#325);
#182=AXIS2_PLACEMENT_3D('placement',#267,#208,#209);
#183=AXIS2_PLACEMENT_3D('',#268,#210,#211);
#184=AXIS2_PLACEMENT_3D('',#270,#212,#213);
#185=AXIS2_PLACEMENT_3D('',#273,#215,#216);
#186=AXIS2_PLACEMENT_3D('',#274,#217,#218);
#187=AXIS2_PLACEMENT_3D('',#276,#219,#220);
#188=AXIS2_PLACEMENT_3D('',#277,#221,#222);
#189=AXIS2_PLACEMENT_3D('',#280,#223,#224);
#190=AXIS2_PLACEMENT_3D('',#281,#225,#226);
#191=AXIS2_PLACEMENT_3D('',#283,#228,#229);
#192=AXIS2_PLACEMENT_3D('',#285,#230,#231);
#193=AXIS2_PLACEMENT_3D('',#287,#233,#234);
#194=AXIS2_PLACEMENT_3D('',#289,#235,#236);
#195=AXIS2_PLACEMENT_3D('',#291,#238,#239);
#196=AXIS2_PLACEMENT_3D('',#294,#240,#241);
#197=AXIS2_PLACEMENT_3D('',#295,#242,#243);
#198=AXIS2_PLACEMENT_3D('',#296,#244,#245);
#199=AXIS2_PLACEMENT_3D('',#297,#246,#247);
#200=AXIS2_PLACEMENT_3D('',#299,#248,#249);
#201=AXIS2_PLACEMENT_3D('',#301,#251,#252);
#202=AXIS2_PLACEMENT_3D('',#303,#253,#254);
#203=AXIS2_PLACEMENT_3D('',#305,#256,#257);
#204=AXIS2_PLACEMENT_3D('',#307,#258,#259);
#205=AXIS2_PLACEMENT_3D('',#308,#260,#261);
#206=AXIS2_PLACEMENT_3D('',#310,#262,#263);
#207=AXIS2_PLACEMENT_3D('',#312,#265,#266);
#208=DIRECTION('axis',(0.,0.,1.));
#209=DIRECTION('refdir',(1.,0.,0.));
#210=DIRECTION('center_axis',(0.,-1.,0.));
#211=DIRECTION('ref_axis',(-1.,0.,0.));
#212=DIRECTION('center_axis',(0.,-1.,0.));
#213=DIRECTION('ref_axis',(-1.,0.,0.));
#214=DIRECTION('',(-0.707106781186549,0.707106781186546,-8.65956056235495E-17));
#215=DIRECTION('center_axis',(0.,1.,0.));
#216=DIRECTION('ref_axis',(-1.,0.,0.));
#217=DIRECTION('center_axis',(0.,1.,0.));
#218=DIRECTION('ref_axis',(1.,0.,0.));
#219=DIRECTION('center_axis',(0.,1.,0.));
#220=DIRECTION('ref_axis',(1.,0.,0.));
#221=DIRECTION('center_axis',(0.,-1.,0.));
#222=DIRECTION('ref_axis',(-1.,0.,0.));
#223=DIRECTION('center_axis',(0.,1.,0.));
#224=DIRECTION('ref_axis',(-1.,0.,0.));
#225=DIRECTION('center_axis',(0.,1.,0.));
#226=DIRECTION('ref_axis',(-1.,0.,0.));
#227=DIRECTION('',(0.,-1.,0.));
#228=DIRECTION('center_axis',(0.,1.,0.));
#229=DIRECTION('ref_axis',(1.,0.,0.));
#230=DIRECTION('center_axis',(0.,-1.,0.));
#231=DIRECTION('ref_axis',(1.,0.,0.));
#232=DIRECTION('',(0.707106781186548,-0.707106781186547,-8.65956056235494E-17));
#233=DIRECTION('center_axis',(0.,1.,0.));
#234=DIRECTION('ref_axis',(1.,0.,0.));
#235=DIRECTION('center_axis',(0.,1.,0.));
#236=DIRECTION('ref_axis',(1.,0.,0.));
#237=DIRECTION('',(0.,-1.,0.));
#238=DIRECTION('center_axis',(0.,1.,0.));
#239=DIRECTION('ref_axis',(1.,0.,0.));
#240=DIRECTION('center_axis',(0.,1.,0.));
#241=DIRECTION('ref_axis',(1.,0.,0.));
#242=DIRECTION('center_axis',(0.,1.,0.));
#243=DIRECTION('ref_axis',(1.,0.,0.));
#244=DIRECTION('center_axis',(1.22464679914735E-16,0.,1.));
#245=DIRECTION('ref_axis',(-1.,0.,1.22464679914735E-16));
#246=DIRECTION('center_axis',(0.,-1.,0.));
#247=DIRECTION('ref_axis',(-1.,0.,0.));
#248=DIRECTION('center_axis',(0.,-1.,0.));
#249=DIRECTION('ref_axis',(-1.,0.,0.));
#250=DIRECTION('',(0.,-1.,0.));
#251=DIRECTION('center_axis',(0.,-1.,0.));
#252=DIRECTION('ref_axis',(1.,0.,0.));
#253=DIRECTION('center_axis',(0.,-1.,0.));
#254=DIRECTION('ref_axis',(1.,0.,0.));
#255=DIRECTION('',(-0.707106781186547,-0.707106781186547,8.65956056235493E-17));
#256=DIRECTION('center_axis',(0.,1.,0.));
#257=DIRECTION('ref_axis',(1.,0.,0.));
#258=DIRECTION('center_axis',(0.,-1.,0.));
#259=DIRECTION('ref_axis',(-1.,0.,0.));
#260=DIRECTION('center_axis',(0.,1.,0.));
#261=DIRECTION('ref_axis',(-1.,0.,0.));
#262=DIRECTION('center_axis',(0.,1.,0.));
#263=DIRECTION('ref_axis',(-1.,0.,0.));
#264=DIRECTION('',(0.,-1.,0.));
#265=DIRECTION('center_axis',(0.,1.,0.));
#266=DIRECTION('ref_axis',(-1.,0.,0.));
#267=CARTESIAN_POINT('',(0.,0.,0.));
#268=CARTESIAN_POINT('Origin',(0.,0.249999999999999,0.));
#269=CARTESIAN_POINT('',(4.,0.,4.89858719658941E-16));
#270=CARTESIAN_POINT('Origin',(0.,0.,0.));
#271=CARTESIAN_POINT('',(3.5,0.499999999999998,-4.28626379701574E-16));
#272=CARTESIAN_POINT('',(3.75,0.249999999999999,4.59242549680257E-16));
#273=CARTESIAN_POINT('Origin',(0.,0.499999999999998,0.));
#274=CARTESIAN_POINT('Origin',(0.,0.,0.));
#275=CARTESIAN_POINT('',(-6.6,0.,8.08266887437253E-16));
#276=CARTESIAN_POINT('Origin',(0.,0.,0.));
#277=CARTESIAN_POINT('Origin',(0.,25.3,0.));
#278=CARTESIAN_POINT('',(3.5,20.3,-4.28626379701574E-16));
#279=CARTESIAN_POINT('',(-3.5,20.3,4.28626379701574E-16));
#280=CARTESIAN_POINT('Origin',(0.,20.3,0.));
#281=CARTESIAN_POINT('Origin',(0.,20.3,0.));
#282=CARTESIAN_POINT('',(3.5,25.3,4.28626379701574E-16));
#283=CARTESIAN_POINT('Origin',(0.,0.25,0.));
#284=CARTESIAN_POINT('',(-7.1,0.5,-8.69499227394621E-16));
#285=CARTESIAN_POINT('Origin',(0.,0.5,0.));
#286=CARTESIAN_POINT('',(-6.85,0.25,8.38883057415937E-16));
#287=CARTESIAN_POINT('Origin',(0.,0.,0.));
#288=CARTESIAN_POINT('',(-7.1,21.23,8.69499227394621E-16));
#289=CARTESIAN_POINT('Origin',(0.,21.23,0.));
#290=CARTESIAN_POINT('',(-7.1,0.,8.69499227394621E-16));
#291=CARTESIAN_POINT('Origin',(0.,21.7966629547096,0.));
#292=CARTESIAN_POINT('',(-4.9,21.7966629547096,6.00076931582203E-16));
#293=CARTESIAN_POINT('',(4.9,21.7966629547096,6.00076931582203E-16));
#294=CARTESIAN_POINT('Origin',(0.,21.7966629547096,0.));
#295=CARTESIAN_POINT('Origin',(0.,21.7966629547096,0.));
#296=CARTESIAN_POINT('Origin',(-3.4,21.7966629547096,4.163799117101E-16));
#297=CARTESIAN_POINT('Origin',(0.,25.3,0.));
#298=CARTESIAN_POINT('',(4.9,25.3,-6.00076931582203E-16));
#299=CARTESIAN_POINT('Origin',(0.,25.3,0.));
#300=CARTESIAN_POINT('',(4.9,25.3,6.00076931582203E-16));
#301=CARTESIAN_POINT('Origin',(0.,21.915,0.));
#302=CARTESIAN_POINT('',(-5.73,22.6,-7.01722615911433E-16));
#303=CARTESIAN_POINT('Origin',(0.,22.6,0.));
#304=CARTESIAN_POINT('',(-6.415,21.915,7.85610921653027E-16));
#305=CARTESIAN_POINT('Origin',(0.,22.6,0.));
#306=CARTESIAN_POINT('',(5.725,22.6,-7.0111029251186E-16));
#307=CARTESIAN_POINT('Origin',(0.,22.6,0.));
#308=CARTESIAN_POINT('Origin',(0.,22.6,0.));
#309=CARTESIAN_POINT('',(5.725,25.3,-7.0111029251186E-16));
#310=CARTESIAN_POINT('Origin',(0.,25.3,0.));
#311=CARTESIAN_POINT('',(5.725,22.6,-7.0111029251186E-16));
#312=CARTESIAN_POINT('Origin',(0.,25.3,0.));
#313=UNCERTAINTY_MEASURE_WITH_UNIT(LENGTH_MEASURE(0.01),#317,
'DISTANCE_ACCURACY_VALUE',
'Maximum model space distance between geometric entities at asserted c
onnectivities');
#314=UNCERTAINTY_MEASURE_WITH_UNIT(LENGTH_MEASURE(0.01),#317,
'DISTANCE_ACCURACY_VALUE',
'Maximum model space distance between geometric entities at asserted c
onnectivities');
#315=(
GEOMETRIC_REPRESENTATION_CONTEXT(3)
GLOBAL_UNCERTAINTY_ASSIGNED_CONTEXT((#313))
GLOBAL_UNIT_ASSIGNED_CONTEXT((#317,#319,#320))
REPRESENTATION_CONTEXT('','3D')
);
#316=(
GEOMETRIC_REPRESENTATION_CONTEXT(3)
GLOBAL_UNCERTAINTY_ASSIGNED_CONTEXT((#314))
GLOBAL_UNIT_ASSIGNED_CONTEXT((#317,#319,#320))
REPRESENTATION_CONTEXT('','3D')
);
#317=(
LENGTH_UNIT()
NAMED_UNIT(*)
SI_UNIT(.MILLI.,.METRE.)
);
#318=(
LENGTH_UNIT()
NAMED_UNIT(*)
SI_UNIT($,.METRE.)
);
#319=(
NAMED_UNIT(*)
PLANE_ANGLE_UNIT()
SI_UNIT($,.RADIAN.)
);
#320=(
NAMED_UNIT(*)
SI_UNIT($,.STERADIAN.)
SOLID_ANGLE_UNIT()
);
#321=SHAPE_DEFINITION_REPRESENTATION(#322,#323);
#322=PRODUCT_DEFINITION_SHAPE('',$,#325);
#323=SHAPE_REPRESENTATION('',(#182),#315);
#324=PRODUCT_DEFINITION_CONTEXT('part definition',#329,'design');
#325=PRODUCT_DEFINITION('douille de sertissage',
'douille de sertissage v1',#326,#324);
#326=PRODUCT_DEFINITION_FORMATION('',$,#331);
#327=PRODUCT_RELATED_PRODUCT_CATEGORY('douille de sertissage v1',
'douille de sertissage v1',(#331));
#328=APPLICATION_PROTOCOL_DEFINITION('international standard',
'automotive_design',2009,#329);
#329=APPLICATION_CONTEXT(
'Core Data for Automotive Mechanical Design Process');
#330=PRODUCT_CONTEXT('part definition',#329,'mechanical');
#331=PRODUCT('douille de sertissage','douille de sertissage v1',$,(#330));
#332=PRESENTATION_STYLE_ASSIGNMENT((#333));
#333=SURFACE_STYLE_USAGE(.BOTH.,#334);
#334=SURFACE_SIDE_STYLE('',(#335));
#335=SURFACE_STYLE_FILL_AREA(#336);
#336=FILL_AREA_STYLE('Acier - Satin\X\E9',(#337));
#337=FILL_AREA_STYLE_COLOUR('Acier - Satin\X\E9',#338);
#338=COLOUR_RGB('Acier - Satin\X\E9',0.627450980392157,0.627450980392157,
0.627450980392157);
ENDSEC;
END-ISO-10303-21;
